  0
SECTION
  2
HEADER
  9
$ACADVER
  1
AC1015
  9
$ACADMAINTVER
 70
     6
  9
$DWGCODEPAGE
  3
ANSI_1254
  9
$INSBASE
 10
0.0
 20
0.0
 30
0.0
  9
$EXTMIN
 10
0.0
 20
0.0
 30
0.0
  9
$EXTMAX
 10
279.4
 20
215.9
 30
0.0
  9
$LIMMIN
 10
0.0
 20
0.0
  9
$LIMMAX
 10
279.4
 20
215.9
  9
$ORTHOMODE
 70
     0
  9
$REGENMODE
 70
     1
  9
$FILLMODE
 70
     1
  9
$QTEXTMODE
 70
     0
  9
$MIRRTEXT
 70
     1
  9
$LTSCALE
 40
1.0
  9
$ATTMODE
 70
     1
  9
$TEXTSIZE
 40
3.5
  9
$TRACEWID
 40
1.0
  9
$TEXTSTYLE
  7
Standard
  9
$CLAYER
  8
0
  9
$CELTYPE
  6
ByLayer
  9
$CECOLOR
 62
   256
  9
$CELTSCALE
 40
1.0
  9
$DISPSILH
 70
     0
  9
$DIMSCALE
 40
1.0
  9
$DIMASZ
 40
3.5
  9
$DIMEXO
 40
1.0
  9
$DIMDLI
 40
3.75
  9
$DIMRND
 40
0.0
  9
$DIMDLE
 40
0.0
  9
$DIMEXE
 40
1.0
  9
$DIMTP
 40
0.0
  9
$DIMTM
 40
0.0
  9
$DIMTXT
 40
3.5
  9
$DIMCEN
 40
2.5
  9
$DIMTSZ
 40
0.0
  9
$DIMTOL
 70
     0
  9
$DIMLIM
 70
     0
  9
$DIMTIH
 70
     1
  9
$DIMTOH
 70
     1
  9
$DIMSE1
 70
     0
  9
$DIMSE2
 70
     0
  9
$DIMTAD
 70
     1
  9
$DIMZIN
 70
     0
  9
$DIMBLK
  1

  9
$DIMASO
 70
     1
  9
$DIMSHO
 70
     1
  9
$DIMPOST
  1

  9
$DIMAPOST
  1

  9
$DIMALT
 70
     0
  9
$DIMALTD
 70
     3
  9
$DIMALTF
 40
0.0393700787
  9
$DIMLFAC
 40
1.0
  9
$DIMTOFL
 70
     1
  9
$DIMTVP
 40
0.0
  9
$DIMTIX
 70
     0
  9
$DIMSOXD
 70
     0
  9
$DIMSAH
 70
     0
  9
$DIMBLK1
  1

  9
$DIMBLK2
  1

  9
$DIMSTYLE
  2
ISO-25
  9
$DIMCLRD
 70
     0
  9
$DIMCLRE
 70
     0
  9
$DIMCLRT
 70
     0
  9
$DIMTFAC
 40
1.0
  9
$DIMGAP
 40
1.524
  9
$DIMJUST
 70
     0
  9
$DIMSD1
 70
     0
  9
$DIMSD2
 70
     0
  9
$DIMTOLJ
 70
     0
  9
$DIMTZIN
 70
     0
  9
$DIMALTZ
 70
     0
  9
$DIMALTTZ
 70
     0
  9
$DIMUPT
 70
     0
  9
$DIMDEC
 70
     2
  9
$DIMTDEC
 70
     2
  9
$DIMALTU
 70
     2
  9
$DIMALTTD
 70
     3
  9
$DIMTXSTY
  7
Standard
  9
$DIMAUNIT
 70
     0
  9
$DIMADEC
 70
     2
  9
$DIMALTRND
 40
0.0
  9
$DIMAZIN
 70
     0
  9
$DIMDSEP
 70
    44
  9
$DIMATFIT
 70
     3
  9
$DIMFRAC
 70
     0
  9
$DIMLDRBLK
  1

  9
$DIMLUNIT
 70
     2
  9
$DIMLWD
 70
    -2
  9
$DIMLWE
 70
    -2
  9
$DIMTMOVE
 70
     0
  9
$LUNITS
 70
     2
  9
$LUPREC
 70
     2
  9
$SKETCHINC
 40
1.0
  9
$FILLETRAD
 40
10.0
  9
$AUNITS
 70
     0
  9
$AUPREC
 70
     2
  9
$MENU
  1
.
  9
$ELEVATION
 40
0.0
  9
$PELEVATION
 40
0.0
  9
$THICKNESS
 40
0.0
  9
$LIMCHECK
 70
     0
  9
$CHAMFERA
 40
0.0
  9
$CHAMFERB
 40
0.0
  9
$CHAMFERC
 40
0.0
  9
$CHAMFERD
 40
0.0
  9
$SKPOLY
 70
     0
  9
$TDCREATE
 40
2458985.668874144
  9
$TDUCREATE
 40
2458985.543874144
  9
$TDUPDATE
 40
2458985.668874456
  9
$TDUUPDATE
 40
2458985.543874456
  9
$TDINDWG
 40
0.0000000116
  9
$TDUSRTIMER
 40
0.0000000116
  9
$USRTIMER
 70
     1
  9
$ANGBASE
 50
0.0
  9
$ANGDIR
 70
     0
  9
$PDMODE
 70
     0
  9
$PDSIZE
 40
-1.0
  9
$PLINEWID
 40
0.0
  9
$SPLFRAME
 70
     0
  9
$SPLINETYPE
 70
     6
  9
$SPLINESEGS
 70
     8
  9
$HANDSEED
  5
D2
  9
$SURFTAB1
 70
     6
  9
$SURFTAB2
 70
     6
  9
$SURFTYPE
 70
     6
  9
$SURFU
 70
     6
  9
$SURFV
 70
     6
  9
$UCSBASE
  2

  9
$UCSNAME
  2

  9
$UCSORG
 10
0.0
 20
0.0
 30
0.0
  9
$UCSXDIR
 10
1.0
 20
0.0
 30
0.0
  9
$UCSYDIR
 10
0.0
 20
1.0
 30
0.0
  9
$UCSORTHOREF
  2

  9
$UCSORTHOVIEW
 70
     0
  9
$UCSORGTOP
 10
0.0
 20
0.0
 30
0.0
  9
$UCSORGBOTTOM
 10
0.0
 20
0.0
 30
0.0
  9
$UCSORGLEFT
 10
0.0
 20
0.0
 30
0.0
  9
$UCSORGRIGHT
 10
0.0
 20
0.0
 30
0.0
  9
$UCSORGFRONT
 10
0.0
 20
0.0
 30
0.0
  9
$UCSORGBACK
 10
0.0
 20
0.0
 30
0.0
  9
$PUCSBASE
  2

  9
$PUCSNAME
  2

  9
$PUCSORG
 10
0.0
 20
0.0
 30
0.0
  9
$PUCSXDIR
 10
1.0
 20
0.0
 30
0.0
  9
$PUCSYDIR
 10
0.0
 20
1.0
 30
0.0
  9
$PUCSORTHOREF
  2

  9
$PUCSORTHOVIEW
 70
     0
  9
$PUCSORGTOP
 10
0.0
 20
0.0
 30
0.0
  9
$PUCSORGBOTTOM
 10
0.0
 20
0.0
 30
0.0
  9
$PUCSORGLEFT
 10
0.0
 20
0.0
 30
0.0
  9
$PUCSORGRIGHT
 10
0.0
 20
0.0
 30
0.0
  9
$PUCSORGFRONT
 10
0.0
 20
0.0
 30
0.0
  9
$PUCSORGBACK
 10
0.0
 20
0.0
 30
0.0
  9
$USERI1
 70
     0
  9
$USERI2
 70
     0
  9
$USERI3
 70
     0
  9
$USERI4
 70
     0
  9
$USERI5
 70
     0
  9
$USERR1
 40
0.0
  9
$USERR2
 40
0.0
  9
$USERR3
 40
0.0
  9
$USERR4
 40
0.0
  9
$USERR5
 40
0.0
  9
$WORLDVIEW
 70
     1
  9
$SHADEDGE
 70
     3
  9
$SHADEDIF
 70
    70
  9
$TILEMODE
 70
     1
  9
$MAXACTVP
 70
    64
  9
$PINSBASE
 10
0.0
 20
0.0
 30
0.0
  9
$PLIMCHECK
 70
     0
  9
$PEXTMIN
 10
1.0000000000E+20
 20
1.0000000000E+20
 30
1.0000000000E+20
  9
$PEXTMAX
 10
-1.0000000000E+20
 20
-1.0000000000E+20
 30
-1.0000000000E+20
  9
$PLIMMIN
 10
0.0
 20
0.0
  9
$PLIMMAX
 10
420.0
 20
297.0
  9
$UNITMODE
 70
     0
  9
$VISRETAIN
 70
     1
  9
$PLINEGEN
 70
     0
  9
$PSLTSCALE
 70
     1
  9
$TREEDEPTH
 70
  3020
  9
$CMLSTYLE
  2
Standard
  9
$CMLJUST
 70
     0
  9
$CMLSCALE
 40
20.0
  9
$PROXYGRAPHICS
 70
     1
  9
$MEASUREMENT
 70
     1
  9
$CELWEIGHT
370
    -1
  9
$ENDCAPS
280
     0
  9
$JOINSTYLE
280
     0
  9
$LWDISPLAY
290
     1
  9
$INSUNITS
 70
     4
  9
$HYPERLINKBASE
  1

  9
$STYLESHEET
  1

  9
$XEDIT
290
     1
  9
$CEPSNTYPE
380
     0
  9
$PSTYLEMODE
290
     1
  9
$FINGERPRINTGUID
  2
{84654e7e-f070-418e-aaa1-67b8506d825b}
  9
$VERSIONGUID
  2
{FAEB1C32-E019-11D5-929B-00C0DF256EC4}
  9
$EXTNAMES
290
     1
  9
$PSVPSCALE
 40
0.0
  9
$OLESTARTUP
290
     0
  0
ENDSEC
  0
SECTION
  2
CLASSES
  0
CLASS
  1
ACDBDICTIONARYWDFLT
  2
AcDbDictionaryWithDefault
  3
ObjectDBX Classes
 90
        0
280
     0
281
     0
  0
CLASS
  1
VISUALSTYLE
  2
AcDbVisualStyle
  3
ObjectDBX Classes
 90
     4095
280
     0
281
     0
  0
CLASS
  1
MATERIAL
  2
AcDbMaterial
  3
ObjectDBX Classes
 90
     1153
280
     0
281
     0
  0
CLASS
  1
SCALE
  2
AcDbScale
  3
ObjectDBX Classes
 90
     1153
280
     0
281
     0
  0
CLASS
  1
TABLESTYLE
  2
AcDbTableStyle
  3
ObjectDBX Classes
 90
     4095
280
     0
281
     0
  0
CLASS
  1
MLEADERSTYLE
  2
AcDbMLeaderStyle
  3
ACDB_MLEADERSTYLE_CLASS
 90
     4095
280
     0
281
     0
  0
CLASS
  1
SUN
  2
AcDbSun
  3
SCENEOE
 90
     1153
280
     0
281
     0
  0
CLASS
  1
ACDBPLACEHOLDER
  2
AcDbPlaceHolder
  3
ObjectDBX Classes
 90
        0
280
     0
281
     0
  0
CLASS
  1
LAYOUT
  2
AcDbLayout
  3
ObjectDBX Classes
 90
        0
280
     0
281
     0
  0
ENDSEC
  0
SECTION
  2
TABLES
  0
TABLE
  2
VPORT
  5
8
330
0
100
AcDbSymbolTable
 70
     1
  0
VPORT
  5
29
330
8
100
AcDbSymbolTableRecord
100
AcDbViewportTableRecord
  2
*Active
 70
     0
 10
0.0
 20
0.0
 11
1.0
 21
1.0
 12
139.7
 22
107.95
 13
0.0
 23
0.0
 14
10.0
 24
10.0
 15
10.0
 25
10.0
 16
0.0
 26
0.0
 36
1.0
 17
0.0
 27
0.0
 37
0.0
 40
215.9
 41
1.2941176471
 42
50.0
 43
0.0
 44
0.0
 50
0.0
 51
0.0
 71
     0
 72
  2000
 73
     1
 74
     3
 75
     0
 76
     0
 77
     0
 78
     0
281
     0
 65
     1
110
0.0
120
0.0
130
0.0
111
1.0
121
0.0
131
0.0
112
0.0
122
1.0
132
0.0
 79
     0
146
0.0
  0
ENDTAB
  0
TABLE
  2
LTYPE
  5
5
330
0
100
AcDbSymbolTable
 70
     6
  0
LTYPE
  5
14
330
5
100
AcDbSymbolTableRecord
100
AcDbLinetypeTableRecord
  2
ByBlock
 70
     0
  3

 72
    65
 73
     0
 40
0.0
  0
LTYPE
  5
15
330
5
100
AcDbSymbolTableRecord
100
AcDbLinetypeTableRecord
  2
ByLayer
 70
     0
  3

 72
    65
 73
     0
 40
0.0
  0
LTYPE
  5
16
330
5
100
AcDbSymbolTableRecord
100
AcDbLinetypeTableRecord
  2
Continuous
 70
     0
  3
Solid line
 72
    65
 73
     0
 40
0.0
  0
LTYPE
  5
6E
330
5
100
AcDbSymbolTableRecord
100
AcDbLinetypeTableRecord
  2
HIDDEN
 70
     0
  3
Hidden __ __ __ __ __ __ __ __ __ __ __ __ __ __
 72
    65
 73
     2
 40
1.905
 49
1.27
 74
     0
 49
-0.635
 74
     0
  0
LTYPE
  5
6F
330
5
100
AcDbSymbolTableRecord
100
AcDbLinetypeTableRecord
  2
PHANTOM
 70
     0
  3
Phantom ______  __  __  ______  __  __  ______
 72
    65
 73
     6
 40
12.7
 49
6.35
 74
     0
 49
-1.27
 74
     0
 49
1.27
 74
     0
 49
-1.27
 74
     0
 49
1.27
 74
     0
 49
-1.27
 74
     0
  0
LTYPE
  5
70
330
5
100
AcDbSymbolTableRecord
100
AcDbLinetypeTableRecord
  2
CENTER
 70
     0
  3
Center ____ _ ____ _ ____ _ ____ _ ____ _ ____
 72
    65
 73
     4
 40
10.16
 49
6.35
 74
     0
 49
-1.27
 74
     0
 49
1.27
 74
     0
 49
-1.27
 74
     0
  0
LTYPE
  5
71
330
5
100
AcDbSymbolTableRecord
100
AcDbLinetypeTableRecord
  2
CENTERX2
 70
     0
  3
Center (2x) ________  __  ________  __  _____
 72
    65
 73
     4
 40
20.32
 49
12.7
 74
     0
 49
-2.54
 74
     0
 49
2.54
 74
     0
 49
-2.54
 74
     0
  0
LTYPE
  5
72
330
5
100
AcDbSymbolTableRecord
100
AcDbLinetypeTableRecord
  2
DOT2
 70
     0
  3
Dot (.5x) ........................................
 72
    65
 73
     2
 40
0.635
 49
0.0
 74
     0
 49
-0.635
 74
     0
  0
ENDTAB
  0
TABLE
  2
LAYER
  5
2
330
0
100
AcDbSymbolTable
 70
    17
  0
LAYER
  5
10
330
2
100
AcDbSymbolTableRecord
100
AcDbLayerTableRecord
  2
0
 70
     0
 62
     7
  6
Continuous
370
    -3
390
F
  0
LAYER
  5
73
330
2
100
AcDbSymbolTableRecord
100
AcDbLayerTableRecord
  2
FORMAT
 70
     0
 62
     7
  6
Continuous
370
    -3
390
F
  0
LAYER
  5
74
330
2
100
AcDbSymbolTableRecord
100
AcDbLayerTableRecord
  2
YARDIMCI_GEOMETRI
 70
     0
 62
    -6
  6
Continuous
290
     0
370
    -3
390
F
  0
LAYER
  5
75
330
2
100
AcDbSymbolTableRecord
100
AcDbLayerTableRecord
  2
SAYFA_CERCEVESI
 70
     0
 62
     7
  6
Continuous
370
    25
390
F
  0
LAYER
  5
76
330
2
100
AcDbSymbolTableRecord
100
AcDbLayerTableRecord
  2
ANTET
 70
     0
 62
     7
  6
Continuous
370
    -3
390
F
  0
LAYER
  5
77
330
2
100
AcDbSymbolTableRecord
100
AcDbLayerTableRecord
  2
OLCU
 70
     0
 62
   150
  6
Continuous
370
    -3
390
F
  0
LAYER
  5
78
330
2
100
AcDbSymbolTableRecord
100
AcDbLayerTableRecord
  2
METIN
 70
     0
 62
    96
  6
Continuous
370
    -3
390
F
  0
LAYER
  5
79
330
2
100
AcDbSymbolTableRecord
100
AcDbLayerTableRecord
  2
BALON
 70
     0
 62
     5
  6
Continuous
370
    -3
390
F
  0
LAYER
  5
7A
330
2
100
AcDbSymbolTableRecord
100
AcDbLayerTableRecord
  2
VURGU
 70
     0
 62
     7
  6
Continuous
370
    -3
390
F
  0
LAYER
  5
7B
330
2
100
AcDbSymbolTableRecord
100
AcDbLayerTableRecord
  2
SILIK
 70
     0
 62
     7
  6
Continuous
370
    -3
390
F
  0
LAYER
  5
7C
330
2
100
AcDbSymbolTableRecord
100
AcDbLayerTableRecord
  2
MODEL
 70
     0
 62
     7
  6
Continuous
370
    -3
390
F
  0
LAYER
  5
7D
330
2
100
AcDbSymbolTableRecord
100
AcDbLayerTableRecord
  2
DETAYLANDıRMA
 70
     0
 62
   190
  6
Continuous
370
    -3
390
F
  0
LAYER
  5
7E
330
2
100
AcDbSymbolTableRecord
100
AcDbLayerTableRecord
  2
TOLERANS
 70
     0
 62
   230
  6
Continuous
370
    -3
390
F
  0
LAYER
  5
7F
330
2
100
AcDbSymbolTableRecord
100
AcDbLayerTableRecord
  2
MERKEZ_CIZGILERI
 70
     0
 62
    30
  6
Continuous
370
    -3
390
F
  0
LAYER
  5
80
330
2
100
AcDbSymbolTableRecord
100
AcDbLayerTableRecord
  2
KESIT-DETAY_CIZGILERI
 70
     0
 62
     7
  6
Continuous
370
    -3
390
F
  0
LAYER
  5
81
330
2
100
AcDbSymbolTableRecord
100
AcDbLayerTableRecord
  2
\U+041E\U+0421\U+0415\U+0412\U+042B\U+0415
 70
     0
 62
     7
  6
Continuous
370
    -3
390
F
  0
LAYER
  5
82
330
2
100
AcDbSymbolTableRecord
100
AcDbLayerTableRecord
  2
\U+0412\U+041E\U+0414\U+042F\U+041D\U+042B\U+0415_\U+0417\U+041D\U+0410\U+041A\U+0418
 70
     0
 62
    11
  6
Continuous
370
    -3
390
F
  0
ENDTAB
  0
TABLE
  2
STYLE
  5
3
330
0
100
AcDbSymbolTable
 70
     1
  0
STYLE
  5
11
330
3
100
AcDbSymbolTableRecord
100
AcDbTextStyleTableRecord
  2
Standard
 70
     0
 40
0.0
 41
1.0
 50
0.0
 71
     0
 42
3.5
  3
txt
  4

  0
ENDTAB
  0
TABLE
  2
VIEW
  5
6
330
0
100
AcDbSymbolTable
 70
     0
  0
ENDTAB
  0
TABLE
  2
UCS
  5
7
330
0
100
AcDbSymbolTable
 70
     0
  0
ENDTAB
  0
TABLE
  2
APPID
  5
9
330
0
100
AcDbSymbolTable
 70
     1
  0
APPID
  5
12
330
9
100
AcDbSymbolTableRecord
100
AcDbRegAppTableRecord
  2
ACAD
 70
     0
  0
ENDTAB
  0
TABLE
  2
DIMSTYLE
  5
A
330
0
100
AcDbSymbolTable
 70
     1
100
AcDbDimStyleTable
  0
DIMSTYLE
105
27
330
A
100
AcDbSymbolTableRecord
100
AcDbDimStyleTableRecord
  2
ISO-25
 70
     0
 41
2.5
 42
0.625
 43
3.75
 44
1.25
 73
     0
 74
     0
 77
     1
 78
     8
140
2.5
141
2.5
143
0.0393700787
147
0.625
171
     3
172
     1
178
     0
271
     2
272
     2
274
     3
278
    44
283
     0
284
     8
340
11
  0
ENDTAB
  0
TABLE
  2
BLOCK_RECORD
  5
1
330
0
100
AcDbSymbolTable
 70
     3
  0
BLOCK_RECORD
  5
1F
330
1
100
AcDbSymbolTableRecord
100
AcDbBlockTableRecord
  2
*Model_Space
340
22
  0
BLOCK_RECORD
  5
1B
330
1
100
AcDbSymbolTableRecord
100
AcDbBlockTableRecord
  2
*Paper_Space
340
1E
  0
BLOCK_RECORD
  5
23
330
1
100
AcDbSymbolTableRecord
100
AcDbBlockTableRecord
  2
*Paper_Space0
340
26
  0
BLOCK_RECORD
  5
94
330
1
100
AcDbSymbolTableRecord
100
AcDbBlockTableRecord
  2
SW_CENTERMARKSYMBOL_0
340
0
102
{BLKREFS
331
9F
102
}
  0
BLOCK_RECORD
  5
A5
330
1
100
AcDbSymbolTableRecord
100
AcDbBlockTableRecord
  2
SW_CENTERMARKSYMBOL_1
340
0
102
{BLKREFS
331
B0
102
}
  0
ENDTAB
  0
ENDSEC
  0
SECTION
  2
BLOCKS
  0
BLOCK
  5
20
330
1F
100
AcDbEntity
  8
0
100
AcDbBlockBegin
  2
*Model_Space
 70
     0
 10
0.0
 20
0.0
 30
0.0
  3
*Model_Space
  1

  0
ENDBLK
  5
21
330
1F
100
AcDbEntity
  8
0
100
AcDbBlockEnd
  0
BLOCK
  5
1C
330
1B
100
AcDbEntity
 67
     1
  8
0
100
AcDbBlockBegin
  2
*Paper_Space
 70
     0
 10
0.0
 20
0.0
 30
0.0
  3
*Paper_Space
  1

  0
ENDBLK
  5
1D
330
1B
100
AcDbEntity
 67
     1
  8
0
100
AcDbBlockEnd
  0
BLOCK
  5
24
330
23
100
AcDbEntity
  8
0
100
AcDbBlockBegin
  2
*Paper_Space0
 70
     0
 10
0.0
 20
0.0
 30
0.0
  3
*Paper_Space0
  1

  0
ENDBLK
  5
25
330
23
100
AcDbEntity
  8
0
100
AcDbBlockEnd
  0
BLOCK
  5
95
330
94
100
AcDbEntity
  8
0
100
AcDbBlockBegin
  2
SW_CENTERMARKSYMBOL_0
 70
     0
 10
0.0
 20
0.0
 30
0.0
  3
SW_CENTERMARKSYMBOL_0
  1

  0
LINE
  5
97
330
94
100
AcDbEntity
  8
FORMAT
 62
     0
100
AcDbLine
 10
0.0
 20
0.0
 30
0.0
 11
0.0
 21
2.5
 31
0.0
  0
LINE
  5
98
330
94
100
AcDbEntity
  8
FORMAT
 62
     0
100
AcDbLine
 10
0.0
 20
0.0
 30
0.0
 11
-2.5
 21
0.0
 31
0.0
  0
LINE
  5
99
330
94
100
AcDbEntity
  8
FORMAT
 62
     0
100
AcDbLine
 10
0.0
 20
0.0
 30
0.0
 11
0.0
 21
-2.5
 31
0.0
  0
LINE
  5
9A
330
94
100
AcDbEntity
  8
FORMAT
 62
     0
100
AcDbLine
 10
0.0
 20
0.0
 30
0.0
 11
2.5
 21
0.0
 31
0.0
  0
LINE
  5
9B
330
94
100
AcDbEntity
  8
FORMAT
 62
     0
100
AcDbLine
 10
0.0
 20
5.0
 30
0.0
 11
0.0
 21
127.5
 31
0.0
  0
LINE
  5
9C
330
94
100
AcDbEntity
  8
FORMAT
 62
     0
100
AcDbLine
 10
-5.0
 20
0.0
 30
0.0
 11
-127.5
 21
0.0
 31
0.0
  0
LINE
  5
9D
330
94
100
AcDbEntity
  8
FORMAT
 62
     0
100
AcDbLine
 10
0.0
 20
-5.0
 30
0.0
 11
0.0
 21
-127.5
 31
0.0
  0
LINE
  5
9E
330
94
100
AcDbEntity
  8
FORMAT
 62
     0
100
AcDbLine
 10
5.0
 20
0.0
 30
0.0
 11
127.5
 21
0.0
 31
0.0
  0
ENDBLK
  5
96
330
94
100
AcDbEntity
  8
0
100
AcDbBlockEnd
  0
BLOCK
  5
A6
330
A5
100
AcDbEntity
  8
0
100
AcDbBlockBegin
  2
SW_CENTERMARKSYMBOL_1
 70
     0
 10
0.0
 20
0.0
 30
0.0
  3
SW_CENTERMARKSYMBOL_1
  1

  0
LINE
  5
A8
330
A5
100
AcDbEntity
  8
FORMAT
 62
     0
100
AcDbLine
 10
0.0
 20
0.0
 30
0.0
 11
0.0
 21
2.5
 31
0.0
  0
LINE
  5
A9
330
A5
100
AcDbEntity
  8
FORMAT
 62
     0
100
AcDbLine
 10
0.0
 20
0.0
 30
0.0
 11
-2.5
 21
0.0
 31
0.0
  0
LINE
  5
AA
330
A5
100
AcDbEntity
  8
FORMAT
 62
     0
100
AcDbLine
 10
0.0
 20
0.0
 30
0.0
 11
0.0
 21
-2.5
 31
0.0
  0
LINE
  5
AB
330
A5
100
AcDbEntity
  8
FORMAT
 62
     0
100
AcDbLine
 10
0.0
 20
0.0
 30
0.0
 11
2.5
 21
0.0
 31
0.0
  0
LINE
  5
AC
330
A5
100
AcDbEntity
  8
FORMAT
 62
     0
100
AcDbLine
 10
0.0
 20
5.0
 30
0.0
 11
0.0
 21
127.5
 31
0.0
  0
LINE
  5
AD
330
A5
100
AcDbEntity
  8
FORMAT
 62
     0
100
AcDbLine
 10
-5.0
 20
0.0
 30
0.0
 11
-127.5
 21
0.0
 31
0.0
  0
LINE
  5
AE
330
A5
100
AcDbEntity
  8
FORMAT
 62
     0
100
AcDbLine
 10
0.0
 20
-5.0
 30
0.0
 11
0.0
 21
-127.5
 31
0.0
  0
LINE
  5
AF
330
A5
100
AcDbEntity
  8
FORMAT
 62
     0
100
AcDbLine
 10
5.0
 20
0.0
 30
0.0
 11
127.5
 21
0.0
 31
0.0
  0
ENDBLK
  5
A7
330
A5
100
AcDbEntity
  8
0
100
AcDbBlockEnd
  0
ENDSEC
  0
SECTION
  2
ENTITIES
  0
LINE
  5
83
330
1F
100
AcDbEntity
  8
0
  6
Continuous
 62
     7
370
    25
100
AcDbLine
 10
11.530459113
 20
316.0936402332
 30
0.0
 11
11.530459113
 21
-42.4095226277
 31
0.0
  0
LINE
  5
84
330
1F
100
AcDbEntity
  8
0
  6
Continuous
 62
     7
370
    25
100
AcDbLine
 10
261.530459113
 20
-42.4095226277
 30
0.0
 11
261.530459113
 21
316.0936402332
 31
0.0
  0
LINE
  5
85
330
1F
100
AcDbEntity
  8
0
  6
Continuous
 62
     7
370
    25
100
AcDbLine
 10
261.530459113
 20
316.0936402332
 30
0.0
 11
261.530459113
 21
464.5904468547
 31
0.0
  0
LINE
  5
86
330
1F
100
AcDbEntity
  8
0
  6
Continuous
 62
     7
370
    25
100
AcDbLine
 10
261.530459113
 20
-264.4095254887
 30
0.0
 11
261.530459113
 21
-42.4095226277
 31
0.0
  0
LINE
  5
87
330
1F
100
AcDbEntity
  8
0
  6
Continuous
 62
     7
370
    25
100
AcDbLine
 10
11.530459113
 20
-42.4095226277
 30
0.0
 11
11.530459113
 21
-264.4095254887
 31
0.0
  0
LINE
  5
88
330
1F
100
AcDbEntity
  8
0
  6
Continuous
 62
     7
370
    25
100
AcDbLine
 10
11.530459113
 20
464.5904468547
 30
0.0
 11
11.530459113
 21
316.0936402332
 31
0.0
  0
LWPOLYLINE
  5
89
330
1F
100
AcDbEntity
  8
0
  6
Continuous
 62
     7
370
    25
100
AcDbPolyline
 90
      112
 70
   128
 43
0.0
 10
136.530459113
 20
394.0167593013
 10
130.2958887066
 20
393.8919471751
 10
124.0812895815
 20
393.5179280292
 10
117.9065687577
 20
392.895953561
 10
111.7915065955
 20
392.0278715144
 10
105.7556888084
 20
390.9166025172
 10
99.8184533785
 20
389.5656036388
 10
93.9988160501
 20
387.9792856227
 10
88.3154237638
 20
386.1627148639
 10
82.7864745627
 20
384.1216134082
 10
77.4296859275
 20
381.8626569759
 10
72.2622128199
 20
379.3930577289
 10
67.3006178807
 20
376.7206238757
 10
62.5607820223
 20
373.8539980899
 10
58.0578895281
 20
370.8023594867
 10
53.8063721727
 20
367.5754832279
 10
49.8198421667
 20
364.1836809169
 10
46.111077256
 20
360.6378602039
 10
42.6919462155
 20
356.9492863666
 10
39.5734162997
 20
353.129880334
 10
36.765463836
 20
349.1918610584
 10
34.277089126
 20
345.147745515
 10
32.1162642907
 20
341.0106467258
 10
30.2899034689
 20
336.7936777126
 10
28.8038702677
 20
332.5104283344
 10
27.6629181574
 20
328.1745480548
 10
26.8706979226
 20
323.7999843608
 10
26.4297502111
 20
319.4007443439
 10
26.3414906333
 20
314.9909543048
 10
26.6062023114
 20
310.5846213352
 10
27.2230284284
 20
306.195990945
 10
28.1900020312
 20
301.8390106212
 10
29.5040236781
 20
297.5277470599
 10
31.1608837913
 20
293.2759093295
 10
33.1552775572
 20
289.0972064983
 10
35.4808049272
 20
285.0049900066
 10
38.1300302218
 20
281.0123132716
 10
41.0944597791
 20
277.1320508968
 10
44.3646015595
 20
273.3765410434
 10
47.929972596
 20
269.7578834544
 10
51.7791660498
 20
266.2877010356
 10
55.8998363088
 20
262.9770206462
 10
60.2787958454
 20
259.8365115176
 10
64.9020077656
 20
256.8761872302
 10
69.7546752165
 20
254.1055845271
 10
74.8212376605
 20
251.5335248958
 10
80.0854751836
 20
249.1682933818
 10
85.5305233966
 20
247.0174001704
 10
91.1389404903
 20
245.0878190051
 10
96.8927593897
 20
243.3856891643
 10
102.7735510836
 20
241.9164346706
 10
108.7624767791
 20
240.6848238956
 10
114.8403512309
 20
239.6947311412
 10
120.9877042095
 20
238.9493750583
 10
127.1848466243
 20
238.4511398326
 10
133.4119250062
 20
238.2016347896
 10
139.6489932197
 20
238.2016347896
 10
145.8760716017
 20
238.4511398326
 10
152.0732140164
 20
238.9493750583
 10
158.220566995
 20
239.6947311412
 10
164.2984414469
 20
240.6848238956
 10
170.2873671423
 20
241.9164346706
 10
176.1681588362
 20
243.3856891643
 10
181.9219777356
 20
245.0878190051
 10
187.5303948294
 20
247.0174001704
 10
192.9754430424
 20
249.1682933818
 10
198.2396805654
 20
251.5335248958
 10
203.3062430094
 20
254.1055845271
 10
208.1589104603
 20
256.8761872302
 10
212.7821223806
 20
259.8365115176
 10
217.1610819171
 20
262.9770206462
 10
221.2817521761
 20
266.2877010356
 10
225.1309456299
 20
269.7578834544
 10
228.6963166664
 20
273.3765410434
 10
231.9664584468
 20
277.1320508968
 10
234.9308880041
 20
281.0123132716
 10
237.5801132987
 20
285.0049900066
 10
239.9056406687
 20
289.0972064983
 10
241.9000344346
 20
293.2759093295
 10
243.5568945478
 20
297.5277470599
 10
244.8709161948
 20
301.8390106212
 10
245.8378897975
 20
306.195990945
 10
246.4547159146
 20
310.5846213352
 10
246.7194275926
 20
314.9909543048
 10
246.6311680148
 20
319.4007443439
 10
246.1902203034
 20
323.7999843608
 10
245.3980000685
 20
328.1745480548
 10
244.2570479582
 20
332.5104283344
 10
242.771014757
 20
336.7936777126
 10
240.9446539353
 20
341.0106467258
 10
238.7838291
 20
345.147745515
 10
236.2954543899
 20
349.1918610584
 10
233.4875019263
 20
353.129880334
 10
230.3689720105
 20
356.9492863666
 10
226.9498409699
 20
360.6378602039
 10
223.2410760592
 20
364.1836809169
 10
219.2545460533
 20
367.5754832279
 10
215.0030286978
 20
370.8023594867
 10
210.5001362036
 20
373.8539980899
 10
205.7603003453
 20
376.7206238757
 10
200.798705406
 20
379.3930577289
 10
195.6312322985
 20
381.8626569759
 10
190.2744436632
 20
384.1216134082
 10
184.7454944621
 20
386.1627148639
 10
179.0621021758
 20
387.9792856227
 10
173.2424648474
 20
389.5656036388
 10
167.3052294175
 20
390.9166025172
 10
161.2694116305
 20
392.0278715144
 10
155.1543494682
 20
392.895953561
 10
148.9796286444
 20
393.5179280292
 10
142.7650295193
 20
393.8919471751
 10
136.530459113
 20
394.0167593013
  0
LWPOLYLINE
  5
8A
330
1F
100
AcDbEntity
  8
0
  6
Continuous
 62
     7
370
    25
100
AcDbPolyline
 90
      119
 70
   128
 43
0.0
 10
136.530459113
 20
404.481964017
 10
129.877687152
 20
404.3566750537
 10
123.2437735419
 20
403.9812253963
 10
116.6475212197
 20
403.3566283237
 10
110.1076306771
 20
402.4846719753
 10
103.6426389585
 20
401.3678597461
 10
97.2708689044
 20
400.0092910777
 10
91.0103881727
 20
398.4128998767
 10
84.8789365958
 20
396.5830968868
 10
78.8938963781
 20
394.5251869212
 10
73.0722324918
 20
392.2449516307
 10
67.4304516981
 20
389.7488283168
 10
61.9845392178
 20
387.0439695369
 10
56.7499326537
 20
384.1379450809
 10
51.7414810131
 20
381.039099599
 10
46.9733702014
 20
377.7561353694
 10
42.4591155718
 20
374.2983507167
 10
38.2115172218
 20
370.6755804073
 10
34.2426152895
 20
366.8981360446
 10
30.5636527012
 20
362.9766272556
 10
27.1850751708
 20
358.9222597133
 10
24.1164417933
 20
354.7464775096
 10
21.3664622973
 20
350.4611419688
 10
18.9429225396
 20
346.0783528339
 10
16.8527068566
 20
341.6106270801
 10
15.1017235587
 20
337.0705412875
 10
13.6949421833
 20
332.4709700595
 10
12.6363562415
 20
327.8250264179
 10
11.9289608668
 20
323.1457637798
 10
11.5747602652
 20
318.4465335857
 10
11.5747602652
 20
313.740687276
 10
11.9289608668
 20
309.0414570819
 10
12.6363562415
 20
304.3621944438
 10
13.6949421833
 20
299.7162508022
 10
15.1017235587
 20
295.1166795741
 10
16.8527068566
 20
290.5765937816
 10
18.9429225396
 20
286.1088680278
 10
21.3664622973
 20
281.7260788928
 10
24.1164417933
 20
277.4407433521
 10
27.1850751708
 20
273.2649611484
 10
30.5636527012
 20
269.2105936061
 10
34.2426152895
 20
265.2890848171
 10
38.2115172218
 20
261.5116404544
 10
42.4591155718
 20
257.888870145
 10
46.9733702014
 20
254.4310854923
 10
51.7414810131
 20
251.1481212627
 10
56.7499326537
 20
248.0492757808
 10
61.9845392178
 20
245.1432513248
 10
67.4304516981
 20
242.4383925449
 10
73.0722324918
 20
239.942269231
 10
78.8938963781
 20
237.6620339404
 10
84.8789365958
 20
235.6041239749
 10
91.0103881727
 20
233.7743507873
 10
97.2708689044
 20
232.1779297839
 10
103.6426389585
 20
230.8193611156
 10
110.1076306771
 20
229.7025488864
 10
116.6475212197
 20
228.830592538
 10
123.2437735419
 20
228.2059954654
 10
129.877687152
 20
227.830545808
 10
136.530459113
 20
227.7052568446
 10
143.1832310739
 20
227.830545808
 10
149.817144684
 20
228.2059954654
 10
156.4133970062
 20
228.830592538
 10
162.9532875489
 20
229.7025488864
 10
169.4182792674
 20
230.8193611156
 10
175.7900493215
 20
232.1779297839
 10
182.0505300532
 20
233.7743507873
 10
188.1819816302
 20
235.6041239749
 10
194.1670218478
 20
237.6620339404
 10
199.9886857341
 20
239.942269231
 10
205.6304665278
 20
242.4383925449
 10
211.0763790081
 20
245.1432513248
 10
216.3109855722
 20
248.0492757808
 10
221.3194372128
 20
251.1481212627
 10
226.0875480245
 20
254.4310854923
 10
230.6018026541
 20
257.888870145
 10
234.8494010042
 20
261.5116404544
 10
238.8183029364
 20
265.2890848171
 10
242.4972655247
 20
269.2105936061
 10
245.8758430551
 20
273.2649611484
 10
248.9444764326
 20
277.4407433521
 10
251.6944559286
 20
281.7260788928
 10
254.1179956864
 20
286.1088680278
 10
256.2082113694
 20
290.5765937816
 10
257.9591946672
 20
295.1166795741
 10
259.3659760426
 20
299.7162508022
 10
260.4245619844
 20
304.3621944438
 10
261.1319573592
 20
309.0414570819
 10
261.4861579607
 20
313.740687276
 10
261.4861579607
 20
318.4465335857
 10
261.1319573592
 20
323.1457637798
 10
260.4245619844
 20
327.8250264179
 10
259.3659760426
 20
332.4709700595
 10
257.9591946672
 20
337.0705412875
 10
256.2082113694
 20
341.6106270801
 10
254.1179956864
 20
346.0783528339
 10
251.6944559286
 20
350.4611419688
 10
248.9444764326
 20
354.7464775096
 10
245.8758430551
 20
358.9222597133
 10
242.4972655247
 20
362.9766272556
 10
238.8183029364
 20
366.8981360446
 10
234.8494010042
 20
370.6755804073
 10
230.6018026541
 20
374.2983507167
 10
226.0875480245
 20
377.7561353694
 10
221.3194372128
 20
381.039099599
 10
216.3109855722
 20
384.1379450809
 10
211.0763790081
 20
387.0439695369
 10
205.6304665278
 20
389.7488283168
 10
199.9886857341
 20
392.2449516307
 10
194.1670218478
 20
394.5251869212
 10
188.1819816302
 20
396.5830968868
 10
182.0505300532
 20
398.4128998767
 10
175.7900493215
 20
400.0092910777
 10
169.4182792674
 20
401.3678597461
 10
162.9532875489
 20
402.4846719753
 10
156.4133970062
 20
403.3566283237
 10
149.817144684
 20
403.9812253963
 10
143.1832310739
 20
404.3566750537
 10
136.530459113
 20
404.481964017
  0
ELLIPSE
  5
8B
330
1F
100
AcDbEntity
  8
0
  6
Continuous
 62
     7
370
    25
100
AcDbEllipse
 10
136.530459113
 20
-42.4095254887
 30
0.0
 11
125.0
 21
0.0
 31
0.0
210
0.0
220
0.0
230
1.0
 40
0.4142135624
 41
3.141592653589827
 42
6.283185307179586
  0
LINE
  5
8C
330
1F
100
AcDbEntity
  8
0
  6
Continuous
 62
     7
370
    25
100
AcDbLine
 10
11.530459113
 20
-264.4095254887
 30
0.0
 11
261.530459113
 21
-264.4095254887
 31
0.0
  0
LINE
  5
8D
330
1F
100
AcDbEntity
  8
0
  6
Continuous
 62
     7
370
    25
100
AcDbLine
 10
11.530459113
 20
464.5904468547
 30
0.0
 11
261.530459113
 21
464.5904468547
 31
0.0
  0
LINE
  5
8E
330
1F
100
AcDbEntity
  8
0
  6
Continuous
 62
     7
370
    25
100
AcDbLine
 10
261.530459113
 20
885.78295007
 30
0.0
 11
261.530459113
 21
1244.2860831286
 31
0.0
  0
LINE
  5
8F
330
1F
100
AcDbEntity
  8
0
  6
Continuous
 62
     7
370
    25
100
AcDbLine
 10
11.530459113
 20
1244.2860831286
 30
0.0
 11
11.530459113
 21
885.78295007
 31
0.0
  0
CIRCLE
  5
90
330
1F
100
AcDbEntity
  8
0
  6
Continuous
 62
     7
370
    25
100
AcDbCircle
 10
136.530459113
 20
1244.2860831286
 30
0.0
 40
110.2
  0
CIRCLE
  5
91
330
1F
100
AcDbEntity
  8
0
  6
Continuous
 62
     7
370
    25
100
AcDbCircle
 10
136.530459113
 20
1244.2860831286
 30
0.0
 40
125.0
  0
LWPOLYLINE
  5
92
330
1F
100
AcDbEntity
  8
0
  6
Continuous
 62
     7
370
    25
100
AcDbPolyline
 90
      119
 70
   128
 43
0.0
 10
136.530459113
 20
974.1713036562
 10
129.877687152
 20
974.0460146929
 10
123.2437735419
 20
973.6705650355
 10
116.6475212197
 20
973.0459679629
 10
110.1076306771
 20
972.1740116145
 10
103.6426389585
 20
971.057169583
 10
97.2708689044
 20
969.6986307169
 10
91.0103881727
 20
968.1022097136
 10
84.8789365958
 20
966.272436526
 10
78.8938963781
 20
964.2145265604
 10
73.0722324918
 20
961.9342912699
 10
67.4304516981
 20
959.4381977583
 10
61.9845392178
 20
956.7333091761
 10
56.7499326537
 20
953.8272847201
 10
51.7414810131
 20
950.7284094359
 10
46.9733702014
 20
947.4454452063
 10
42.4591155718
 20
943.9876903559
 10
38.2115172218
 20
940.3649200465
 10
34.2426152895
 20
936.5874458815
 10
30.5636527012
 20
932.6659668948
 10
27.1850751708
 20
928.6115993525
 10
24.1164417933
 20
924.4358171488
 10
21.3664622973
 20
920.150481608
 10
18.9429225396
 20
915.7677222754
 10
16.8527068566
 20
911.299936917
 10
15.1017235587
 20
906.7598511244
 10
13.6949421833
 20
902.1603096987
 10
12.6363562415
 20
897.5143362547
 10
11.9289608668
 20
892.835103419
 10
11.5747602652
 20
888.1359030272
 10
11.5747602652
 20
883.4299971129
 10
11.9289608668
 20
878.7307967211
 10
12.6363562415
 20
874.0515638853
 10
13.6949421833
 20
869.4055904414
 10
15.1017235587
 20
864.8060192133
 10
16.8527068566
 20
860.2659334208
 10
18.9429225396
 20
855.7981778647
 10
21.3664622973
 20
851.415418532
 10
24.1164417933
 20
847.1300829913
 10
27.1850751708
 20
842.9543007876
 10
30.5636527012
 20
838.899903443
 10
34.2426152895
 20
834.9784244563
 10
38.2115172218
 20
831.2009502913
 10
42.4591155718
 20
827.5782097842
 10
46.9733702014
 20
824.1204549338
 10
51.7414810131
 20
820.8374609019
 10
56.7499326537
 20
817.7385856177
 10
61.9845392178
 20
814.832590964
 10
67.4304516981
 20
812.1277023817
 10
73.0722324918
 20
809.6316088702
 10
78.8938963781
 20
807.3513735796
 10
84.8789365958
 20
805.2934338118
 10
91.0103881727
 20
803.4636904265
 10
97.2708689044
 20
801.8672694231
 10
103.6426389585
 20
800.5087007548
 10
110.1076306771
 20
799.3918885256
 10
116.6475212197
 20
798.5199321772
 10
123.2437735419
 20
797.8953351046
 10
129.877687152
 20
797.5198854472
 10
136.530459113
 20
797.3945964838
 10
143.1832310739
 20
797.5198854472
 10
149.817144684
 20
797.8953351046
 10
156.4133970062
 20
798.5199321772
 10
162.9532875489
 20
799.3918885256
 10
169.4182792674
 20
800.5087007548
 10
175.7900493215
 20
801.8672694231
 10
182.0505300532
 20
803.4636904265
 10
188.1819816302
 20
805.2934338118
 10
194.1670218478
 20
807.3513735796
 10
199.9886857341
 20
809.6316088702
 10
205.6304665278
 20
812.1277023817
 10
211.0763790081
 20
814.832590964
 10
216.3109855722
 20
817.7385856177
 10
221.3194372128
 20
820.8374609019
 10
226.0875480245
 20
824.1204549338
 10
230.6018026541
 20
827.5782097842
 10
234.8494010042
 20
831.2009502913
 10
238.8183029364
 20
834.9784244563
 10
242.4972655247
 20
838.899903443
 10
245.8758430551
 20
842.9543007876
 10
248.9444764326
 20
847.1300829913
 10
251.6944559286
 20
851.415418532
 10
254.1179956864
 20
855.7981778647
 10
256.2082113694
 20
860.2659334208
 10
257.9591946672
 20
864.8060192133
 10
259.3659760426
 20
869.4055904414
 10
260.4245619844
 20
874.0515638853
 10
261.1319573592
 20
878.7307967211
 10
261.4861579607
 20
883.4299971129
 10
261.4861579607
 20
888.1359030272
 10
261.1319573592
 20
892.835103419
 10
260.4245619844
 20
897.5143362547
 10
259.3659760426
 20
902.1603096987
 10
257.9591946672
 20
906.7598511244
 10
256.2082113694
 20
911.299936917
 10
254.1179956864
 20
915.7677222754
 10
251.6944559286
 20
920.150481608
 10
248.9444764326
 20
924.4358171488
 10
245.8758430551
 20
928.6115993525
 10
242.4972655247
 20
932.6659668948
 10
238.8183029364
 20
936.5874458815
 10
234.8494010042
 20
940.3649200465
 10
230.6018026541
 20
943.9876903559
 10
226.0875480245
 20
947.4454452063
 10
221.3194372128
 20
950.7284094359
 10
216.3109855722
 20
953.8272847201
 10
211.0763790081
 20
956.7333091761
 10
205.6304665278
 20
959.4381977583
 10
199.9886857341
 20
961.9342912699
 10
194.1670218478
 20
964.2145265604
 10
188.1819816302
 20
966.272436526
 10
182.0505300532
 20
968.1022097136
 10
175.7900493215
 20
969.6986307169
 10
169.4182792674
 20
971.057169583
 10
162.9532875489
 20
972.1740116145
 10
156.4133970062
 20
973.0459679629
 10
149.817144684
 20
973.6705650355
 10
143.1832310739
 20
974.0460146929
 10
136.530459113
 20
974.1713036562
  0
LWPOLYLINE
  5
93
330
1F
100
AcDbEntity
  8
0
  6
Continuous
 62
     7
370
    25
100
AcDbPolyline
 90
      112
 70
   128
 43
0.0
 10
136.530459113
 20
963.7060989405
 10
130.2958887066
 20
963.5813166167
 10
124.0812895815
 20
963.2072974707
 10
117.9065687577
 20
962.5852633978
 10
111.7915065955
 20
961.7172111536
 10
105.7556888084
 20
960.6059123541
 10
99.8184533785
 20
959.254943278
 10
93.9988160501
 20
957.6686252619
 10
88.3154237638
 20
955.8520247008
 10
82.7864745627
 20
953.8109828497
 10
77.4296859275
 20
951.5519966151
 10
72.2622128199
 20
949.0823675658
 10
67.3006178807
 20
946.4099635149
 10
62.5607820223
 20
943.5433377291
 10
58.0578895281
 20
940.4916991259
 10
53.8063721727
 20
937.264822867
 10
49.8198421667
 20
933.8730205561
 10
46.111077256
 20
930.3271700407
 10
42.6919462155
 20
926.6386260058
 10
39.5734162997
 20
922.8192199732
 10
36.765463836
 20
918.8811708952
 10
34.277089126
 20
914.8371149565
 10
32.1162642907
 20
910.6999565627
 10
30.2899034689
 20
906.4830173518
 10
28.8038702677
 20
902.1997381712
 10
27.6629181574
 20
897.863887694
 10
26.8706979226
 20
893.489324
 10
26.4297502111
 20
889.0900839831
 10
26.3414906333
 20
884.6802641417
 10
26.6062023114
 20
880.2739609743
 10
27.2230284284
 20
875.8853007819
 10
28.1900020312
 20
871.5283800627
 10
29.5040236781
 20
867.2170866991
 10
31.1608837913
 20
862.9652787711
 10
33.1552775572
 20
858.7865461375
 10
35.4808049272
 20
854.6942998434
 10
38.1300302218
 20
850.7016529108
 10
41.0944597791
 20
846.8213607336
 10
44.3646015595
 20
843.0658806826
 10
47.929972596
 20
839.447252896
 10
51.7791660498
 20
835.9770406748
 10
55.8998363088
 20
832.6663602854
 10
60.2787958454
 20
829.5258511568
 10
64.9020077656
 20
826.5655268694
 10
69.7546752165
 20
823.794894364
 10
74.8212376605
 20
821.2228347327
 10
80.0854751836
 20
818.8576032187
 10
85.5305233966
 20
816.7067398096
 10
91.1389404903
 20
814.777128842
 10
96.8927593897
 20
813.0749990012
 10
102.7735510836
 20
811.6057445074
 10
108.7624767791
 20
810.3741337325
 10
114.8403512309
 20
809.3840707804
 10
120.9877042095
 20
808.6387146975
 10
127.1848466243
 20
808.1405092741
 10
133.4119250062
 20
807.8909744288
 10
139.6489932197
 20
807.8909744288
 10
145.8760716017
 20
808.1405092741
 10
152.0732140164
 20
808.6387146975
 10
158.220566995
 20
809.3840707804
 10
164.2984414469
 20
810.3741337325
 10
170.2873671423
 20
811.6057445074
 10
176.1681588362
 20
813.0749990012
 10
181.9219777356
 20
814.777128842
 10
187.5303948294
 20
816.7067398096
 10
192.9754430424
 20
818.8576032187
 10
198.2396805654
 20
821.2228347327
 10
203.3062430094
 20
823.794894364
 10
208.1589104603
 20
826.5655268694
 10
212.7821223806
 20
829.5258511568
 10
217.1610819171
 20
832.6663602854
 10
221.2817521761
 20
835.9770406748
 10
225.1309456299
 20
839.447252896
 10
228.6963166664
 20
843.0658806826
 10
231.9664584468
 20
846.8213607336
 10
234.9308880041
 20
850.7016529108
 10
237.5801132987
 20
854.6942998434
 10
239.9056406687
 20
858.7865461375
 10
241.9000344346
 20
862.9652787711
 10
243.5568945478
 20
867.2170866991
 10
244.8709161948
 20
871.5283800627
 10
245.8378897975
 20
875.8853007819
 10
246.4547159146
 20
880.2739609743
 10
246.7194275926
 20
884.6802641417
 10
246.6311680148
 20
889.0900839831
 10
246.1902203034
 20
893.489324
 10
245.3980000685
 20
897.863887694
 10
244.2570479582
 20
902.1997381712
 10
242.771014757
 20
906.4830173518
 10
240.9446539353
 20
910.6999565627
 10
238.7838291
 20
914.8371149565
 10
236.2954543899
 20
918.8811708952
 10
233.4875019263
 20
922.8192199732
 10
230.3689720105
 20
926.6386260058
 10
226.9498409699
 20
930.3271700407
 10
223.2410760592
 20
933.8730205561
 10
219.2545460533
 20
937.264822867
 10
215.0030286978
 20
940.4916991259
 10
210.5001362036
 20
943.5433377291
 10
205.7603003453
 20
946.4099635149
 10
200.798705406
 20
949.0823675658
 10
195.6312322985
 20
951.5519966151
 10
190.2744436632
 20
953.8109828497
 10
184.7454944621
 20
955.8520247008
 10
179.0621021758
 20
957.6686252619
 10
173.2424648474
 20
959.254943278
 10
167.3052294175
 20
960.6059123541
 10
161.2694116305
 20
961.7172111536
 10
155.1543494682
 20
962.5852633978
 10
148.9796286444
 20
963.2072974707
 10
142.7650295193
 20
963.5813166167
 10
136.530459113
 20
963.7060989405
  0
INSERT
  5
9F
330
1F
100
AcDbEntity
  8
FORMAT
100
AcDbBlockReference
  2
SW_CENTERMARKSYMBOL_0
 10
136.530459113
 20
1244.2860831286
 30
0.0
  0
LINE
  5
A0
330
1F
100
AcDbEntity
  8
0
  6
Continuous
 62
     7
370
    25
100
AcDbLine
 10
11.530459113
 20
-681.8557671592
 30
0.0
 11
11.530459113
 21
-1040.3589002177
 31
0.0
  0
LINE
  5
A1
330
1F
100
AcDbEntity
  8
0
  6
Continuous
 62
     7
370
    25
100
AcDbLine
 10
261.530459113
 20
-1040.3589002177
 30
0.0
 11
261.530459113
 21
-681.8557671592
 31
0.0
  0
CIRCLE
  5
A2
330
1F
100
AcDbEntity
  8
0
  6
Continuous
 62
     7
370
    25
100
AcDbCircle
 10
136.530459113
 20
-1040.3589002177
 30
0.0
 40
110.2
  0
CIRCLE
  5
A3
330
1F
100
AcDbEntity
  8
0
  6
Continuous
 62
     7
370
    25
100
AcDbCircle
 10
136.530459113
 20
-1040.3589002177
 30
0.0
 40
125.0
  0
LWPOLYLINE
  5
A4
330
1F
100
AcDbEntity
  8
0
  6
Continuous
 62
     7
370
    25
100
AcDbPolyline
 90
       61
 70
   128
 43
0.0
 10
11.530459113
 20
-681.8557671592
 10
11.5747602652
 20
-679.502814202
 10
11.9289608668
 20
-674.8036138102
 10
12.6363562415
 20
-670.1243809745
 10
13.6949421833
 20
-665.4784075305
 10
15.1017235587
 20
-660.8788363025
 10
16.8527068566
 20
-656.3387505099
 10
18.9429225396
 20
-651.8709949538
 10
21.3664622973
 20
-647.4882356212
 10
24.1164417933
 20
-643.2029000804
 10
27.1850751708
 20
-639.0271178767
 10
30.5636527012
 20
-634.9727205321
 10
34.2426152895
 20
-631.0512415454
 10
38.2115172218
 20
-627.2737673804
 10
42.4591155718
 20
-623.6510268733
 10
46.9733702014
 20
-620.1932720229
 10
51.7414810131
 20
-616.910277991
 10
56.7499326537
 20
-613.8114027068
 10
61.9845392178
 20
-610.9054080531
 10
67.4304516981
 20
-608.2005194709
 10
73.0722324918
 20
-605.7044259593
 10
78.8938963781
 20
-603.4241906688
 10
84.8789365958
 20
-601.3662509009
 10
91.0103881727
 20
-599.5365075156
 10
97.2708689044
 20
-597.9400865123
 10
103.6426389585
 20
-596.5815178439
 10
110.1076306771
 20
-595.4647056147
 10
116.6475212197
 20
-594.5927492663
 10
123.2437735419
 20
-593.9681521937
 10
129.877687152
 20
-593.5927025363
 10
136.530459113
 20
-593.467413573
 10
143.1832310739
 20
-593.5927025363
 10
149.817144684
 20
-593.9681521937
 10
156.4133970062
 20
-594.5927492663
 10
162.9532875489
 20
-595.4647056147
 10
169.4182792674
 20
-596.5815178439
 10
175.7900493215
 20
-597.9400865123
 10
182.0505300532
 20
-599.5365075156
 10
188.1819816302
 20
-601.3662509009
 10
194.1670218478
 20
-603.4241906688
 10
199.9886857341
 20
-605.7044259593
 10
205.6304665278
 20
-608.2005194709
 10
211.0763790081
 20
-610.9054080531
 10
216.3109855722
 20
-613.8114027068
 10
221.3194372128
 20
-616.910277991
 10
226.0875480245
 20
-620.1932720229
 10
230.6018026541
 20
-623.6510268733
 10
234.8494010042
 20
-627.2737673804
 10
238.8183029364
 20
-631.0512415454
 10
242.4972655247
 20
-634.9727205321
 10
245.8758430551
 20
-639.0271178767
 10
248.9444764326
 20
-643.2029000804
 10
251.6944559286
 20
-647.4882356212
 10
254.1179956864
 20
-651.8709949538
 10
256.2082113694
 20
-656.3387505099
 10
257.9591946672
 20
-660.8788363025
 10
259.3659760426
 20
-665.4784075305
 10
260.4245619844
 20
-670.1243809745
 10
261.1319573592
 20
-674.8036138102
 10
261.4861579607
 20
-679.502814202
 10
261.530459113
 20
-681.8557671592
  0
INSERT
  5
B0
330
1F
100
AcDbEntity
  8
FORMAT
100
AcDbBlockReference
  2
SW_CENTERMARKSYMBOL_1
 10
136.530459113
 20
-1040.3589002177
 30
0.0
  0
LINE
  5
B1
330
1F
100
AcDbEntity
  8
0
  6
Continuous
 62
     7
370
    25
100
AcDbLine
 10
956.8256578829
 20
259.3671845447
 30
0.0
 11
956.8256578829
 21
464.5904468547
 31
0.0
  0
LINE
  5
B2
330
1F
100
AcDbEntity
  8
0
  6
Continuous
 62
     7
370
    25
100
AcDbLine
 10
956.8256578829
 20
-264.4095254887
 30
0.0
 11
956.8256578829
 21
-94.1862148989
 31
0.0
  0
LINE
  5
B3
330
1F
100
AcDbEntity
  8
0
  6
Continuous
 62
     7
370
    25
100
AcDbLine
 10
706.8256578829
 20
464.5904468547
 30
0.0
 11
706.8256578829
 21
-264.4095254887
 31
0.0
  0
LINE
  5
B4
330
1F
100
AcDbEntity
  8
0
  6
Continuous
 62
     7
370
    25
100
AcDbLine
 10
1101.9404373553
 20
404.481964017
 30
0.0
 11
956.8256578829
 21
259.3671845447
 31
0.0
  0
LINE
  5
B5
330
1F
100
AcDbEntity
  8
0
  6
Continuous
 62
     7
370
    25
100
AcDbLine
 10
956.8256578829
 20
-94.1862148989
 30
0.0
 11
1278.7171445277
 21
227.7052568446
 31
0.0
  0
LINE
  5
B6
330
1F
100
AcDbEntity
  8
0
  6
Continuous
 62
     7
370
    25
100
AcDbLine
 10
831.8256578829
 20
-264.4095254887
 30
0.0
 11
956.8256578829
 21
-264.4095254887
 31
0.0
  0
LINE
  5
B7
330
1F
100
AcDbEntity
  8
0
  6
Continuous
 62
     7
370
    25
100
AcDbLine
 10
706.8256578829
 20
-264.4095254887
 30
0.0
 11
831.8256578829
 21
-264.4095254887
 31
0.0
  0
LINE
  5
B8
330
1F
100
AcDbEntity
  8
0
  6
Continuous
 62
     7
370
    25
100
AcDbLine
 10
831.8256578829
 20
464.5904468547
 30
0.0
 11
956.8256578829
 21
464.5904468547
 31
0.0
  0
LINE
  5
B9
330
1F
100
AcDbEntity
  8
0
  6
Continuous
 62
     7
370
    25
100
AcDbLine
 10
706.8256578829
 20
464.5904468547
 30
0.0
 11
831.8256578829
 21
464.5904468547
 31
0.0
  0
LWPOLYLINE
  5
BA
330
1F
100
AcDbEntity
  8
0
  6
Continuous
 62
     7
370
    25
100
AcDbPolyline
 90
       49
 70
   128
 43
0.0
 10
831.8256578829
 20
-42.4095226277
 10
835.9585792247
 20
-32.431764697
 10
840.0869808581
 20
-22.4649293174
 10
844.2063491281
 20
-12.5198794354
 10
848.3121796932
 20
-2.6075376023
 10
852.3999817159
 20
7.2612928401
 10
856.4652867105
 20
17.0757936488
 10
860.503648543
 20
26.8252657901
 10
864.5106508818
 20
36.4990400325
 10
868.4819109228
 20
46.0865067493
 10
872.4130905655
 20
55.5772053252
 10
876.2998870995
 20
64.9607645522
 10
880.138053694
 20
74.226902629
 10
883.9233919468
 20
83.3655165683
 10
887.6517593351
 20
92.3665927898
 10
891.3190803912
 20
101.220296527
 10
894.9213467028
 20
109.9169420253
 10
898.4546206381
 20
118.4470223438
 10
901.9150427964
 20
126.8012093555
 10
905.2988133814
 20
134.9703537475
 10
908.6022443559
 20
142.9455446254
 10
911.8217221882
 20
150.7180797111
 10
914.9537302044
 20
158.279405738
 10
917.9948336866
 20
165.6212674629
 10
920.9417171266
 20
172.7356778632
 10
923.7911469724
 20
179.6147989284
 10
926.5400163319
 20
186.2511502754
 10
929.1853151705
 20
192.6374899398
 10
931.7241601136
 20
198.7667845737
 10
934.1537571933
 20
204.6323584567
 10
936.4714689043
 20
210.2278040897
 10
938.6747471478
 20
215.5469821941
 10
940.7611853864
 20
220.5841111194
 10
942.728511193
 20
225.3336476337
 10
944.5745638993
 20
229.7904061328
 10
946.2973243978
 20
233.9495288383
 10
947.8949151423
 20
237.8064559947
 10
949.3655852463
 20
241.3569258701
 10
950.7077253845
 20
244.5971535693
 10
951.9198677924
 20
247.5235628139
 10
953.0006937173
 20
250.1328753482
 10
953.9490110662
 20
252.4223493587
 10
954.7637916591
 20
254.3893622409
 10
955.4441414263
 20
256.031887437
 10
955.9893153098
 20
257.3480772029
 10
956.398717263
 20
258.3364414226
 10
956.6719077017
 20
258.995966817
 10
956.8085737016
 20
259.3259381305
 10
956.8256578829
 20
259.3671845447
  0
LWPOLYLINE
  5
BB
330
1F
100
AcDbEntity
  8
0
  6
Continuous
 62
     7
370
    25
100
AcDbPolyline
 90
       32
 70
   128
 43
0.0
 10
956.8256578829
 20
-94.1862148989
 10
956.7842177537
 20
-94.1690487612
 10
956.452845731
 20
-94.0317941655
 10
955.7909957554
 20
-93.7576426018
 10
954.8004038122
 20
-93.3473391284
 10
953.4837074068
 20
-92.8019417275
 10
951.8443934109
 20
-92.1229107131
 10
949.8868129637
 20
-91.3120491255
 10
947.6161516693
 20
-90.3715176333
 10
945.0384370473
 20
-89.3037898291
 10
942.1605087307
 20
-88.1117118348
 10
938.9899886634
 20
-86.7984426964
 10
935.5352811005
 20
-85.3674543847
 10
931.8055651572
 20
-83.8225615967
 10
927.8107128527
 20
-82.1678323497
 10
923.5613263633
 20
-80.4076773871
 10
919.0686784175
 20
-78.5467607726
 10
914.3446750429
 20
-76.5900147904
 10
909.4018406656
 20
-74.5426399459
 10
904.253295758
 20
-72.4100304593
 10
898.9126823332
 20
-70.1978785742
 10
893.3941676703
 20
-67.9120404471
 10
887.7123809841
 20
-65.5585659493
 10
881.8823947992
 20
-63.1436986674
 10
875.9196690705
 20
-60.6738610018
 10
869.8400102046
 20
-58.1555796612
 10
863.6595487084
 20
-55.5955601681
 10
857.3946665462
 20
-53.0005527486
 10
851.0619803753
 20
-50.3774715413
 10
844.678282873
 20
-47.7332604874
 10
838.2605022241
 20
-45.0749231328
 10
831.8256578829
 20
-42.4095226277
  0
LWPOLYLINE
  5
BC
330
1F
100
AcDbEntity
  8
0
  6
Continuous
 62
     7
370
    25
100
AcDbPolyline
 90
       60
 70
   128
 43
0.0
 10
1101.9404373553
 20
404.481964017
 10
1102.0657263186
 20
404.3566750537
 10
1102.441175976
 20
403.9812253963
 10
1103.0657730487
 20
403.3566283237
 10
1103.9377293971
 20
402.4846719753
 10
1105.0545714285
 20
401.3678597461
 10
1106.4131102946
 20
400.0092910777
 10
1108.0095312979
 20
398.4128998767
 10
1109.8393044856
 20
396.5830968868
 10
1111.8972144511
 20
394.5251869212
 10
1114.1774497416
 20
392.2449516307
 10
1116.6735432532
 20
389.7488283168
 10
1119.3784318354
 20
387.0439695369
 10
1122.2844562914
 20
384.1379450809
 10
1125.3833315756
 20
381.039099599
 10
1128.6662958052
 20
377.7561353694
 10
1132.1240506556
 20
374.2983507167
 10
1135.7468209651
 20
370.6755804073
 10
1139.52429513
 20
366.8981360446
 10
1143.4457741168
 20
362.9766272556
 10
1147.500141659
 20
358.9222597133
 10
1151.6759238627
 20
354.7464775096
 10
1155.9612594035
 20
350.4611419688
 10
1160.3440187361
 20
346.0783528339
 10
1164.8118040946
 20
341.6106270801
 10
1169.3518898871
 20
337.0705412875
 10
1173.9514313128
 20
332.4709700595
 10
1178.5974047568
 20
327.8250264179
 10
1183.2766375926
 20
323.1457637798
 10
1187.9758379843
 20
318.4465335857
 10
1192.6817438986
 20
313.740687276
 10
1197.3809442904
 20
309.0414570819
 10
1202.0601771262
 20
304.3621944438
 10
1206.7061505702
 20
299.7162508022
 10
1211.3057217982
 20
295.1166795741
 10
1215.8458075907
 20
290.5765937816
 10
1220.3135631468
 20
286.1088680278
 10
1224.6963224795
 20
281.7260788928
 10
1228.9816580203
 20
277.4407433521
 10
1233.1574402239
 20
273.2649611484
 10
1237.2118375685
 20
269.2105936061
 10
1241.1333165553
 20
265.2890848171
 10
1244.9107907202
 20
261.5116404544
 10
1248.5335312274
 20
257.888870145
 10
1251.9912860777
 20
254.4310854923
 10
1255.2742801097
 20
251.1481212627
 10
1258.3731553938
 20
248.0492757808
 10
1261.2791500476
 20
245.1432513248
 10
1263.9840386298
 20
242.4383925449
 10
1266.4801321414
 20
239.942269231
 10
1268.7603674319
 20
237.6620339404
 10
1270.8183071997
 20
235.6041239749
 10
1272.648050585
 20
233.7743507873
 10
1274.2444715884
 20
232.1779297839
 10
1275.6030402567
 20
230.8193611156
 10
1276.7198524859
 20
229.7025488864
 10
1277.5918088343
 20
228.830592538
 10
1278.2164059069
 20
228.2059954654
 10
1278.5918555644
 20
227.830545808
 10
1278.7171445277
 20
227.7052568446
  0
LINE
  5
BD
330
1F
100
AcDbEntity
  8
0
  6
Continuous
 62
     7
370
    25
100
AcDbLine
 10
-406.0505269716
 20
-264.4095254887
 30
0.0
 11
-406.0505269716
 21
464.5904468547
 31
0.0
  0
LINE
  5
BE
330
1F
100
AcDbEntity
  8
0
  6
Continuous
 62
     7
370
    25
100
AcDbLine
 10
-656.0505269716
 20
-94.1862148989
 30
0.0
 11
-656.0505269716
 21
-264.4095254887
 31
0.0
  0
LINE
  5
BF
330
1F
100
AcDbEntity
  8
0
  6
Continuous
 62
     7
370
    25
100
AcDbLine
 10
-656.0505269716
 20
464.5904468547
 30
0.0
 11
-656.0505269716
 21
259.3671845447
 31
0.0
  0
LINE
  5
C0
330
1F
100
AcDbEntity
  8
0
  6
Continuous
 62
     7
370
    25
100
AcDbLine
 10
-977.9420136163
 20
227.7052568446
 30
0.0
 11
-656.0505269716
 21
-94.1862148989
 31
0.0
  0
LINE
  5
C1
330
1F
100
AcDbEntity
  8
0
  6
Continuous
 62
     7
370
    25
100
AcDbLine
 10
-656.0505269716
 20
259.3671845447
 30
0.0
 11
-801.1653064439
 21
404.481964017
 31
0.0
  0
LINE
  5
C2
330
1F
100
AcDbEntity
  8
0
  6
Continuous
 62
     7
370
    25
100
AcDbLine
 10
-656.0505269716
 20
-264.4095254887
 30
0.0
 11
-406.0505269716
 21
-264.4095254887
 31
0.0
  0
LINE
  5
C3
330
1F
100
AcDbEntity
  8
0
  6
Continuous
 62
     7
370
    25
100
AcDbLine
 10
-656.0505269716
 20
464.5904468547
 30
0.0
 11
-406.0505269716
 21
464.5904468547
 31
0.0
  0
LWPOLYLINE
  5
C4
330
1F
100
AcDbEntity
  8
0
  6
Continuous
 62
     7
370
    25
100
AcDbPolyline
 90
       49
 70
   128
 43
0.0
 10
-656.0505269716
 20
259.3671845447
 10
-656.0334427902
 20
259.3259381305
 10
-655.8967767904
 20
258.995966817
 10
-655.6235863516
 20
258.3364414226
 10
-655.2141843984
 20
257.3480772029
 10
-654.669010515
 20
256.031887437
 10
-653.9886607477
 20
254.3893622409
 10
-653.1738801548
 20
252.4223493587
 10
-652.2255628059
 20
250.1328753482
 10
-651.144736881
 20
247.5235628139
 10
-649.9325944731
 20
244.5971535693
 10
-648.590454335
 20
241.3569258701
 10
-647.1197842309
 20
237.8064559947
 10
-645.5221934864
 20
233.9495288383
 10
-643.7994329879
 20
229.7904061328
 10
-641.9533802817
 20
225.3336476337
 10
-639.986054475
 20
220.5841111194
 10
-637.8996162364
 20
215.5469821941
 10
-635.6963379929
 20
210.2278040897
 10
-633.378626282
 20
204.6323584567
 10
-630.9490292022
 20
198.7667845737
 10
-628.4101842592
 20
192.6374899398
 10
-625.7648854205
 20
186.2511502754
 10
-623.016016061
 20
179.6147989284
 10
-620.1665862152
 20
172.7356778632
 10
-617.2197027752
 20
165.6212674629
 10
-614.178599293
 20
158.279405738
 10
-611.0465912769
 20
150.7180797111
 10
-607.8271134445
 20
142.9455446254
 10
-604.5236824701
 20
134.9703537475
 10
-601.139911885
 20
126.8012093555
 10
-597.6794897268
 20
118.4470223438
 10
-594.1462157914
 20
109.9169420253
 10
-590.5439494798
 20
101.220296527
 10
-586.8766284237
 20
92.3665927898
 10
-583.1482610354
 20
83.3655165683
 10
-579.3629227826
 20
74.226902629
 10
-575.5247561881
 20
64.9607645522
 10
-571.6379596541
 20
55.5772053252
 10
-567.7067800114
 20
46.0865067493
 10
-563.7355199704
 20
36.4990400325
 10
-559.7285176316
 20
26.8252657901
 10
-555.6901557991
 20
17.0757936488
 10
-551.6248508045
 20
7.2612928401
 10
-547.5370487819
 20
-2.6075376023
 10
-543.4312182168
 20
-12.5198794354
 10
-539.3118499467
 20
-22.4649293174
 10
-535.1834483134
 20
-32.431764697
 10
-531.0505269716
 20
-42.4095226277
  0
LWPOLYLINE
  5
C5
330
1F
100
AcDbEntity
  8
0
  6
Continuous
 62
     7
370
    25
100
AcDbPolyline
 90
       32
 70
   128
 43
0.0
 10
-531.0505269716
 20
-42.4095226277
 10
-537.4853713127
 20
-45.0749231328
 10
-543.9031519616
 20
-47.7332604874
 10
-550.2868494639
 20
-50.3774715413
 10
-556.6195356349
 20
-53.0005527486
 10
-562.8844177971
 20
-55.5955601681
 10
-569.0648792932
 20
-58.1555796612
 10
-575.1445381591
 20
-60.6738610018
 10
-581.1072638879
 20
-63.1436986674
 10
-586.9372500727
 20
-65.5585659493
 10
-592.6190367589
 20
-67.9120404471
 10
-598.1375514219
 20
-70.1978785742
 10
-603.4781648466
 20
-72.4100304593
 10
-608.6267097542
 20
-74.5426399459
 10
-613.5695441315
 20
-76.5900147904
 10
-618.2935475061
 20
-78.5467607726
 10
-622.786195452
 20
-80.4076773871
 10
-627.0355819413
 20
-82.1678323497
 10
-631.0304342458
 20
-83.8225615967
 10
-634.7601501891
 20
-85.3674543847
 10
-638.2148577521
 20
-86.7984426964
 10
-641.3853778193
 20
-88.1117118348
 10
-644.2633061359
 20
-89.3037898291
 10
-646.8410207579
 20
-90.3715176333
 10
-649.1116820524
 20
-91.3120491255
 10
-651.0692624995
 20
-92.1229107131
 10
-652.7085764954
 20
-92.8019417275
 10
-654.0252729008
 20
-93.3473391284
 10
-655.0158648441
 20
-93.7576426018
 10
-655.6777148196
 20
-94.0317941655
 10
-656.0090868423
 20
-94.1690487612
 10
-656.0505269716
 20
-94.1862148989
  0
LWPOLYLINE
  5
C6
330
1F
100
AcDbEntity
  8
0
  6
Continuous
 62
     7
370
    25
100
AcDbPolyline
 90
       60
 70
   128
 43
0.0
 10
-977.9420136163
 20
227.7052568446
 10
-977.816724653
 20
227.830545808
 10
-977.4412749955
 20
228.2059954654
 10
-976.8166779229
 20
228.830592538
 10
-975.9447215745
 20
229.7025488864
 10
-974.8279093454
 20
230.8193611156
 10
-973.469340677
 20
232.1779297839
 10
-971.8729196737
 20
233.7743507873
 10
-970.0431762883
 20
235.6041239749
 10
-967.9852365205
 20
237.6620339404
 10
-965.70500123
 20
239.942269231
 10
-963.2089077184
 20
242.4383925449
 10
-960.5040191362
 20
245.1432513248
 10
-957.5980244825
 20
248.0492757808
 10
-954.4991491983
 20
251.1481212627
 10
-951.2161551664
 20
254.4310854923
 10
-947.758400316
 20
257.888870145
 10
-944.1356598089
 20
261.5116404544
 10
-940.3581856439
 20
265.2890848171
 10
-936.4367066572
 20
269.2105936061
 10
-932.3823093126
 20
273.2649611484
 10
-928.2065271089
 20
277.4407433521
 10
-923.9211915681
 20
281.7260788928
 10
-919.5384322355
 20
286.1088680278
 10
-915.0706766794
 20
290.5765937816
 10
-910.5305908868
 20
295.1166795741
 10
-905.9310196588
 20
299.7162508022
 10
-901.2850462148
 20
304.3621944438
 10
-896.605813379
 20
309.0414570819
 10
-891.9066129873
 20
313.740687276
 10
-887.200707073
 20
318.4465335857
 10
-882.5015066812
 20
323.1457637798
 10
-877.8222738454
 20
327.8250264179
 10
-873.1763004014
 20
332.4709700595
 10
-868.5767589757
 20
337.0705412875
 10
-864.0366731832
 20
341.6106270801
 10
-859.5688878248
 20
346.0783528339
 10
-855.1861284921
 20
350.4611419688
 10
-850.9007929513
 20
354.7464775096
 10
-846.7250107477
 20
358.9222597133
 10
-842.6706432054
 20
362.9766272556
 10
-838.7491642186
 20
366.8981360446
 10
-834.9716900537
 20
370.6755804073
 10
-831.3489197442
 20
374.2983507167
 10
-827.8911648938
 20
377.7561353694
 10
-824.6082006643
 20
381.039099599
 10
-821.5093253801
 20
384.1379450809
 10
-818.603300924
 20
387.0439695369
 10
-815.8984123418
 20
389.7488283168
 10
-813.4023188302
 20
392.2449516307
 10
-811.1220835397
 20
394.5251869212
 10
-809.0641735742
 20
396.5830968868
 10
-807.2344003866
 20
398.4128998767
 10
-805.6379793832
 20
400.0092910777
 10
-804.2794405172
 20
401.3678597461
 10
-803.1625984857
 20
402.4846719753
 10
-802.2906421373
 20
403.3566283237
 10
-801.6660450647
 20
403.9812253963
 10
-801.2905954072
 20
404.3566750537
 10
-801.1653064439
 20
404.481964017
  0
LINE
  5
C7
330
1F
100
AcDbEntity
  8
0
  6
Continuous
 62
     7
370
    25
100
AcDbLine
 10
616.0744941636
 20
-636.3841488359
 30
0.0
 11
852.8276616411
 21
-1046.4526503889
 31
0.0
  0
LINE
  5
C8
330
1F
100
AcDbEntity
  8
0
  6
Continuous
 62
     7
370
    25
100
AcDbLine
 10
998.9606846694
 20
-799.5624831492
 30
0.0
 11
832.5808319153
 21
-511.384107418
 31
0.0
  0
LINE
  5
C9
330
1F
100
AcDbEntity
  8
0
  6
Continuous
 62
     7
370
    25
100
AcDbLine
 10
1102.8276573625
 20
-1194.2310630044
 30
0.0
 11
1102.8276573625
 21
-598.9728337224
 31
0.0
  0
LINE
  5
CA
330
1F
100
AcDbEntity
  8
0
  6
Continuous
 62
     7
370
    25
100
AcDbLine
 10
852.8276616411
 20
-1042.8539160842
 30
0.0
 11
852.8276616411
 21
-1194.2310630044
 31
0.0
  0
ELLIPSE
  5
CB
330
1F
100
AcDbEntity
  8
0
  6
Continuous
 62
     7
370
    25
100
AcDbEllipse
 10
977.8276595018
 20
-1012.9590027657
 30
0.0
 11
124.5493450390221
 21
33.37289650585456
 31
0.0
210
0.0
220
0.0
230
1.0
 40
0.3177652438
 41
0.7004580896382487
 42
3.056652579830595
  0
ELLIPSE
  5
CC
330
1F
100
AcDbEntity
  8
0
  6
Continuous
 62
     7
370
    25
100
AcDbEllipse
 10
977.8276595018
 20
-1012.9590027657
 30
0.0
 11
-80.57099823912949
 21
300.6950582807011
 31
0.0
210
0.0
220
0.0
230
1.0
 40
0.3178248929
 41
4.79732905414389
 42
5.412847070022956
  0
LWPOLYLINE
  5
CD
330
1F
100
AcDbEntity
  8
0
  6
Continuous
 62
     7
370
    25
100
AcDbPolyline
 90
      119
 70
   128
 43
0.0
 10
786.8276672382
 20
-537.7919145576
 10
782.0348543953
 20
-540.558763144
 10
777.078486097
 20
-543.4200634814
 10
771.972574524
 20
-546.3677263755
 10
766.7316073263
 20
-549.3933880469
 10
761.3704412678
 20
-552.4884472051
 10
755.9042874097
 20
-555.6441952728
 10
750.3486189137
 20
-558.8516019383
 10
744.7191828961
 20
-562.101673323
 10
739.0319582809
 20
-565.3851112941
 10
733.3030504324
 20
-568.692641986
 10
727.5487043268
 20
-572.0149108505
 10
721.7852176233
 20
-575.3424355072
 10
716.0289222259
 20
-578.6658597369
 10
710.2961763801
 20
-581.9756903563
 10
704.6032066225
 20
-585.2626074922
 10
698.9661446595
 20
-588.5172972748
 10
693.40095361
 20
-591.730494425
 10
687.923438542
 20
-594.8930735027
 10
682.5491147643
 20
-597.9961492957
 10
677.2932288992
 20
-601.0308456365
 10
672.170653516
 20
-603.9885995861
 10
667.1959345457
 20
-606.861012383
 10
662.3831543041
 20
-609.6399772047
 10
657.7459472967
 20
-612.3175240342
 10
653.297489682
 20
-614.8861664226
 10
649.0503780993
 20
-617.3386064454
 10
645.016645474
 20
-619.66782291
 10
641.2077241386
 20
-621.8673116625
 10
637.6344300281
 20
-623.9307783632
 10
634.3068520445
 20
-625.8523240485
 10
631.2344732286
 20
-627.6266185048
 10
628.4259600261
 20
-629.2485839351
 10
625.8892939966
 20
-630.7135622498
 10
623.6316506409
 20
-632.0174823807
 10
621.6594573535
 20
-633.1566078011
 10
619.9782827866
 20
-634.127697757
 10
618.5929053394
 20
-634.9280650611
 10
617.5072446686
 20
-635.5553722902
 10
616.7243722258
 20
-636.0078690581
 10
616.2464954524
 20
-636.2842551313
 10
616.0750104625
 20
-636.3837960241
 10
616.2103703348
 20
-636.3061313693
 10
616.6522115528
 20
-636.0515669361
 10
617.399269711
 20
-635.6207826203
 10
618.4494058569
 20
-635.014963246
 10
619.7996802477
 20
-634.2358533183
 10
621.4462575203
 20
-633.2857144524
 10
623.384454106
 20
-632.1671519839
 10
625.6087909147
 20
-630.8834252433
 10
628.1129590898
 20
-629.4381023141
 10
630.8898384483
 20
-627.8352927365
 10
633.9316054813
 20
-626.0795851472
 10
637.2295937431
 20
-624.1759088942
 10
640.7744624384
 20
-622.1296800376
 10
644.5561964223
 20
-619.9466796794
 10
648.5640311264
 20
-617.6331216613
 10
652.7866290483
 20
-615.195550652
 10
657.212031349
 20
-612.6408701049
 10
661.8276588407
 20
-609.9763416963
 10
666.6204716836
 20
-607.2094931099
 10
671.5768399819
 20
-604.3481927725
 10
676.6827515549
 20
-601.4005298784
 10
681.9237187526
 20
-598.374868207
 10
687.2848637377
 20
-595.2797968834
 10
692.7510386692
 20
-592.1240609811
 10
698.3067071652
 20
-588.9166299808
 10
703.9361221093
 20
-585.6665707655
 10
709.623367798
 20
-582.3831449598
 10
715.3522756465
 20
-579.0756142679
 10
721.1066217521
 20
-575.7533454034
 10
726.8701084556
 20
-572.4258207467
 10
732.6263827796
 20
-569.1023843516
 10
738.3591286254
 20
-565.7925537321
 10
744.0521194564
 20
-562.5056487617
 10
749.6891814194
 20
-559.2509589791
 10
755.2543513955
 20
-556.0377496635
 10
760.7318664635
 20
-552.8751705857
 10
766.1061902412
 20
-549.7720947928
 10
771.3620971797
 20
-546.7374106173
 10
776.4846725629
 20
-543.7796566678
 10
781.4593915332
 20
-540.9072438709
 10
786.2721717748
 20
-538.1282790492
 10
790.9093577088
 20
-535.4507200542
 10
795.3578153235
 20
-532.8820776659
 10
799.6049479796
 20
-530.4296498085
 10
803.6386806049
 20
-528.1004333439
 10
807.4476019403
 20
-525.9009445914
 10
811.0208960508
 20
-523.8374778907
 10
814.3484740344
 20
-521.9159322054
 10
817.4208528503
 20
-520.1416377491
 10
820.2293660528
 20
-518.5196723188
 10
822.7660320823
 20
-517.0546940041
 10
825.0236543646
 20
-515.7507617078
 10
826.995847652
 20
-514.6116362874
 10
828.6770432923
 20
-513.6405584969
 10
830.0624207395
 20
-512.8401911927
 10
831.1480814103
 20
-512.2128839637
 10
831.9309538531
 20
-511.7603871958
 10
832.4088095531
 20
-511.4839889572
 10
832.580294543
 20
-511.3844480644
 10
832.4449346706
 20
-511.4621127192
 10
832.0031145261
 20
-511.7166893178
 10
831.2560563679
 20
-512.1474736336
 10
830.2058991486
 20
-512.7532808425
 10
828.8556247578
 20
-513.5323907701
 10
827.2090685586
 20
-514.4825418015
 10
825.2708719729
 20
-515.60110427
 10
823.0465351642
 20
-516.8848310106
 10
820.5423669891
 20
-518.3301539397
 10
817.7654665572
 20
-519.932951352
 10
814.7237205976
 20
-521.6886467719
 10
811.4257323358
 20
-523.5923473597
 10
807.8808425671
 20
-525.6385640509
 10
804.0991296566
 20
-527.8215765745
 10
800.0912949525
 20
-530.1351345926
 10
795.8686970306
 20
-532.5727056019
 10
791.4432947299
 20
-535.127386149
 10
786.8276672382
 20
-537.7919145576
  0
LWPOLYLINE
  5
CE
330
1F
100
AcDbEntity
  8
0
  6
Continuous
 62
     7
370
    25
100
AcDbPolyline
 90
      112
 70
   128
 43
0.0
 10
779.4276500172
 20
-542.0652423019
 10
774.9309085777
 20
-544.6611967727
 10
770.2720519196
 20
-547.3507471062
 10
765.4660204421
 20
-550.1252438964
 10
760.5282128915
 20
-552.9759190454
 10
755.4744382872
 20
-555.8935241587
 10
750.3208994583
 20
-558.8688024069
 10
745.0840982131
 20
-561.8921539209
 10
739.7808024118
 20
-564.9538981487
 10
734.4280104053
 20
-568.0443187154
 10
729.0428443508
 20
-571.153384339
 10
723.642597627
 20
-574.2711838
 10
718.2445451736
 20
-577.3877921136
 10
712.8659645642
 20
-580.4931610093
 10
707.5241043965
 20
-583.5773561964
 10
702.2360815595
 20
-586.6304950081
 10
697.0188127443
 20
-589.6428102781
 10
691.8890249817
 20
-592.6046199189
 10
686.8631397373
 20
-595.5065155176
 10
681.9572781808
 20
-598.3391159468
 10
677.1871347448
 20
-601.0933593819
 10
672.5680087354
 20
-603.7605093838
 10
668.1146620863
 20
-606.3318720135
 10
663.8414036525
 20
-608.7993555208
 10
659.7618837445
 20
-611.1549562915
 10
655.8891994957
 20
-613.3912090236
 10
652.2357315427
 20
-615.5008916843
 10
648.8132019777
 20
-617.4772597258
 10
645.6325795181
 20
-619.313954837
 10
642.7040320911
 20
-621.0051783324
 10
640.0369426388
 20
-622.5454143409
 10
637.639888045
 20
-623.9298313364
 10
635.5204968891
 20
-625.1538775819
 10
633.6855916924
 20
-626.2137343548
 10
632.1410308666
 20
-627.1059205234
 10
630.891771935
 20
-627.8276210604
 10
629.9418293847
 20
-628.3765653811
 10
629.2942167156
 20
-628.7509147974
 10
628.9510307332
 20
-628.9495545352
 10
628.9133725241
 20
-628.9717986836
 10
629.1813527236
 20
-628.8175331699
 10
629.7541020531
 20
-628.4873313473
 10
630.6298187348
 20
-627.9822076135
 10
631.8056578563
 20
-627.3038029725
 10
633.2778788849
 20
-626.4542511915
 10
635.0417587394
 20
-625.4363263384
 10
637.0916655472
 20
-624.2532541937
 10
639.4210059605
 20
-622.9088643503
 10
642.022314719
 20
-621.4073924934
 10
644.8872915275
 20
-619.7537024592
 10
648.0067193973
 20
-617.9530900514
 10
651.3706490377
 20
-616.0112982405
 10
654.9682750507
 20
-613.9345886667
 10
658.7880636875
 20
-611.7295705327
 10
662.8178206797
 20
-609.4033317851
 10
667.0445822493
 20
-606.9632830476
 10
671.4548554778
 20
-604.4172865059
 10
676.0345126099
 20
-601.7734979394
 10
680.7688384686
 20
-599.0403393495
 10
685.6427197867
 20
-596.2266086456
 10
690.6405062541
 20
-593.3412922141
 10
695.7461965561
 20
-590.3936765062
 10
700.9434640574
 20
-587.3931628711
 10
706.2156159718
 20
-584.3493884819
 10
711.5458067308
 20
-581.272103129
 10
716.916927348
 20
-578.171111442
 10
722.311776641
 20
-575.0564173703
 10
727.7130981094
 20
-571.9379595451
 10
733.1035852035
 20
-568.8257542552
 10
738.4659550813
 20
-565.7297311819
 10
743.7830223654
 20
-562.6598368287
 10
749.0377808022
 20
-559.6258900256
 10
754.2133821892
 20
-556.6376427797
 10
759.2932364731
 20
-553.7046007955
 10
764.2611013122
 20
-550.8361907813
 10
769.101050466
 20
-548.0416570275
 10
773.7975633576
 20
-545.3298636862
 10
778.3356146355
 20
-542.7095837401
 10
782.7006741738
 20
-540.1891583229
 10
786.8787334135
 20
-537.7766275135
 10
790.8564318038
 20
-535.4798033363
 10
794.6209935811
 20
-533.3059412476
 10
798.1604068937
 20
-531.2621233935
 10
801.4633131659
 20
-529.3547871369
 10
804.5191177336
 20
-527.5901478609
 10
807.3180530647
 20
-525.9737731079
 10
809.8511524172
 20
-524.5108654733
 10
812.1102867177
 20
-523.2060952992
 10
814.0882383183
 20
-522.0637040885
 10
815.7786325082
 20
-521.0872763712
 10
817.1761113694
 20
-520.2800286652
 10
818.2761441155
 20
-519.6444079618
 10
819.0752430949
 20
-519.1825996957
 10
819.5708373499
 20
-518.8959923868
 10
819.7613411051
 20
-518.7855031049
 10
819.6461432314
 20
-518.8515592221
 10
819.2256072453
 20
-519.0938793869
 10
818.5010765777
 20
-519.5117138317
 10
817.4748851101
 20
-520.1037166036
 10
816.1503255653
 20
-520.8679881513
 10
814.5316231646
 20
-521.8020661937
 10
812.6239593364
 20
-522.9030336954
 10
810.4334822522
 20
-524.1672937669
 10
807.9671593128
 20
-525.5907521779
 10
805.2329246625
 20
-527.1689755152
 10
802.2395158699
 20
-528.896823124
 10
798.9965358308
 20
-530.7687520426
 10
795.5143750606
 20
-532.7788375321
 10
791.8041787666
 20
-534.9205487367
 10
787.8778363112
 20
-537.1871441153
 10
783.7479226019
 20
-539.5712429193
 10
779.4276500172
 20
-542.0652423019
  0
LWPOLYLINE
  5
CF
330
1F
100
AcDbEntity
  8
0
  6
Continuous
 62
     7
370
    25
100
AcDbPolyline
 90
      119
 70
   128
 43
0.0
 10
889.4393118535
 20
-1245.2565699933
 10
884.8603626567
 20
-1242.4685641038
 10
880.5449425571
 20
-1239.5438222154
 10
876.5052830312
 20
-1236.4906341172
 10
872.752826619
 20
-1233.3176614047
 10
869.2982206681
 20
-1230.0338912883
 10
866.1512498329
 20
-1226.648634123
 10
863.3208439768
 20
-1223.1714853906
 10
860.8150162695
 20
-1219.61230213
 10
858.6408737232
 20
-1215.981172523
 10
856.8045750463
 20
-1212.2883915638
 10
855.311333277
 20
-1208.5444260833
 10
854.165376271
 20
-1204.7598858562
 10
853.3699546041
 20
-1200.9454977493
 10
852.9273231327
 20
-1197.1120829117
 10
852.8387357255
 20
-1193.2704989886
 10
853.1044399952
 20
-1189.4316370802
 10
853.7236878353
 20
-1185.6063791626
 10
854.6947196149
 20
-1181.8055707157
 10
856.014785252
 20
-1178.0399781441
 10
857.6801468481
 20
-1174.3202872562
 10
859.6860734194
 20
-1170.6570333136
 10
862.0268909465
 20
-1167.0606025511
 10
864.6959533981
 20
-1163.5411880775
 10
867.6857059517
 20
-1160.1087716271
 10
870.9876626027
 20
-1156.7730756586
 10
874.5924680678
 20
-1153.5435580327
 10
878.4899096389
 20
-1150.4293747552
 10
882.6689329878
 20
-1147.4393526051
 10
887.117693533
 20
-1144.581965564
 10
891.8235814642
 20
-1141.8653142869
 10
896.773257304
 20
-1139.2970994901
 10
901.9526887858
 20
-1136.8846006623
 10
907.3471969527
 20
-1134.6346555348
 10
912.9414917183
 20
-1132.5536456353
 10
918.7197126966
 20
-1130.6474666348
 10
924.6654766173
 20
-1128.9215192234
 10
930.7619418632
 20
-1127.3807022673
 10
936.9918176898
 20
-1126.0293770727
 10
943.3374472016
 20
-1124.8713803118
 10
949.7808389627
 20
-1123.9099875262
 10
956.3037433877
 20
-1123.1479298547
 10
962.8876501075
 20
-1122.5873651403
 10
969.5139091418
 20
-1122.2298809715
 10
976.1637335327
 20
-1122.0764931615
 10
982.8182731023
 20
-1122.1276335832
 10
989.4586618675
 20
-1122.3831592926
 10
996.0660917972
 20
-1122.8423464468
 10
1002.6218180805
 20
-1123.5038933449
 10
1009.1072592255
 20
-1124.3659234695
 10
1015.5040365721
 20
-1125.4259961314
 10
1021.794019073
 20
-1126.6811019077
 10
1027.9593733428
 20
-1128.1276854518
 10
1033.9826242446
 20
-1129.7616439727
 10
1039.8466970362
 20
-1131.5783515661
 10
1045.5349700543
 20
-1133.5726531317
 10
1051.0313155439
 20
-1135.7389001086
 10
1056.3201655128
 20
-1138.0709459139
 10
1061.3865160123
 20
-1140.5621849099
 10
1066.2160071501
 20
-1143.2055560154
 10
1070.7949563469
 20
-1145.9935619049
 10
1075.1103764464
 20
-1148.9183037934
 10
1079.1500359724
 20
-1151.9714918915
 10
1082.9024923846
 20
-1155.144464604
 10
1086.3570983355
 20
-1158.4282347204
 10
1089.5040691707
 20
-1161.8134918858
 10
1092.3344750267
 20
-1165.2906406181
 10
1094.8403027341
 20
-1168.8498238787
 10
1097.0144452803
 20
-1172.4809534857
 10
1098.8507439573
 20
-1176.1737344449
 10
1100.3439857266
 20
-1179.9176999254
 10
1101.4899427325
 20
-1183.7022401525
 10
1102.2853643994
 20
-1187.5166282594
 10
1102.7279958708
 20
-1191.350043097
 10
1102.816583278
 20
-1195.1916270201
 10
1102.5508790083
 20
-1199.0304889285
 10
1101.9316311682
 20
-1202.8557468461
 10
1100.9605993887
 20
-1206.656555293
 10
1099.6405337515
 20
-1210.4221478647
 10
1097.9751721554
 20
-1214.1418387525
 10
1095.9692455841
 20
-1217.8050926951
 10
1093.6284280571
 20
-1221.4015234576
 10
1090.9593656054
 20
-1224.9209379312
 10
1087.9696130519
 20
-1228.3533543816
 10
1084.6676564009
 20
-1231.6890503501
 10
1081.0628509357
 20
-1234.918567976
 10
1077.1654093646
 20
-1238.0327512535
 10
1072.9863860157
 20
-1241.0227734036
 10
1068.5376254706
 20
-1243.8801604447
 10
1063.8317375393
 20
-1246.5968117218
 10
1058.8820616996
 20
-1249.1650265186
 10
1053.7026302177
 20
-1251.5775253464
 10
1048.3081220508
 20
-1253.827470474
 10
1042.7138272853
 20
-1255.9084803735
 10
1036.935606307
 20
-1257.8146593739
 10
1030.9898423863
 20
-1259.5406067853
 10
1024.8933771403
 20
-1261.0814237414
 10
1018.6635013138
 20
-1262.432748936
 10
1012.317871802
 20
-1263.590745697
 10
1005.8744800409
 20
-1264.5521384826
 10
999.3515756159
 20
-1265.314196154
 10
992.767668896
 20
-1265.8747608684
 10
986.1414098618
 20
-1266.2322450372
 10
979.4915854708
 20
-1266.3856328472
 10
972.8370459012
 20
-1266.3344924256
 10
966.196657136
 20
-1266.0789667161
 10
959.5892272063
 20
-1265.6197795619
 10
953.0335009231
 20
-1264.9582326638
 10
946.548059778
 20
-1264.0962025392
 10
940.1512824314
 20
-1263.0361298773
 10
933.8612999305
 20
-1261.781024101
 10
927.6959456607
 20
-1260.334440557
 10
921.672694759
 20
-1258.7004820361
 10
915.8086219674
 20
-1256.8837744426
 10
910.1203489493
 20
-1254.8894728771
 10
904.6240034597
 20
-1252.7232259002
 10
899.3351534907
 20
-1250.3911800948
 10
894.2688029912
 20
-1247.8999410989
 10
889.4393118535
 20
-1245.2565699933
  0
LWPOLYLINE
  5
D0
330
1F
100
AcDbEntity
  8
0
  6
Continuous
 62
     7
370
    25
100
AcDbPolyline
 90
       52
 70
   128
 43
0.0
 10
865.128071865
 20
-567.7576145184
 10
867.6857059517
 20
-564.8505423451
 10
870.9876626027
 20
-561.5148463766
 10
874.5924680678
 20
-558.2853287507
 10
878.4899096389
 20
-555.1711454732
 10
882.6689329878
 20
-552.1811233231
 10
887.117693533
 20
-549.323736282
 10
891.8235814642
 20
-546.6070850049
 10
896.773257304
 20
-544.0388702081
 10
901.9526887858
 20
-541.6263713803
 10
907.3471969527
 20
-539.3764262527
 10
912.9414917183
 20
-537.2954163533
 10
918.7197126966
 20
-535.3892373528
 10
924.6654766173
 20
-533.6632899414
 10
930.7619418632
 20
-532.1224729853
 10
936.9918176898
 20
-530.7711477907
 10
943.3374472016
 20
-529.6131510298
 10
949.7808389627
 20
-528.6517582442
 10
956.3037433877
 20
-527.8897005727
 10
962.8876501075
 20
-527.3291358583
 10
969.5139091418
 20
-526.9716516895
 10
976.1637335327
 20
-526.8182638795
 10
982.8182731023
 20
-526.8694043012
 10
989.4586618675
 20
-527.1249300106
 10
996.0660917972
 20
-527.5841171648
 10
1002.6218180805
 20
-528.2456640629
 10
1009.1072592255
 20
-529.1076941875
 10
1015.5040365721
 20
-530.1677668494
 10
1021.794019073
 20
-531.4228726257
 10
1027.9593733428
 20
-532.8694561697
 10
1033.9826242446
 20
-534.5034146907
 10
1039.8466970362
 20
-536.3201222841
 10
1045.5349700543
 20
-538.3144238497
 10
1051.0313155439
 20
-540.4806708266
 10
1056.3201655128
 20
-542.8127166319
 10
1061.3865160123
 20
-545.3039556279
 10
1066.2160071501
 20
-547.9473267334
 10
1070.7949563469
 20
-550.7353326229
 10
1075.1103764464
 20
-553.6600745114
 10
1079.1500359724
 20
-556.7132626095
 10
1082.9024923846
 20
-559.886235322
 10
1086.3570983355
 20
-563.1700054384
 10
1089.5040691707
 20
-566.5552626037
 10
1092.3344750267
 20
-570.0324113361
 10
1094.8403027341
 20
-573.5915945967
 10
1097.0144452803
 20
-577.2227242037
 10
1098.8507439573
 20
-580.9155051629
 10
1100.3439857266
 20
-584.6594706434
 10
1101.4899427325
 20
-588.4440108705
 10
1102.2853643994
 20
-592.2583989774
 10
1102.7279958708
 20
-596.091813815
 10
1102.8276573625
 20
-598.9728337224
  0
LWPOLYLINE
  5
D1
330
1F
100
AcDbEntity
  8
0
  6
Continuous
 62
     7
370
    25
100
AcDbPolyline
 90
      112
 70
   128
 43
0.0
 10
899.9044902425
 20
-1239.2151511045
 10
895.6207905856
 20
-1236.5981244252
 10
891.6004218039
 20
-1233.8453847835
 10
887.8562643696
 20
-1230.9657486937
 10
884.4003189392
 20
-1227.9684371707
 10
881.243642475
 20
-1224.8630571017
 10
878.3963528548
 20
-1221.6595552454
 10
875.8675761885
 20
-1218.3681878187
 10
873.6654086222
 20
-1214.9995045295
 10
871.7968965821
 20
-1211.5642945925
 10
870.2680407258
 20
-1208.0735585967
 10
869.0837274535
 20
-1204.5384811334
 10
868.2477605183
 20
-1200.9703882168
 10
867.7628030743
 20
-1197.3807077467
 10
867.6304198231
 20
-1193.7809330119
 10
867.8510322333
 20
-1190.1826029219
 10
868.4239290768
 20
-1186.597241179
 10
869.3472822339
 20
-1183.0363349895
 10
870.6181256204
 20
-1179.5112864016
 10
872.2324026019
 20
-1176.0333910161
 10
874.184926482
 20
-1172.6137878036
 10
876.4694516245
 20
-1169.2634302123
 10
879.0786576487
 20
-1165.9930527125
 10
882.0041810393
 20
-1162.8131282177
 10
885.2366625618
 20
-1159.7338467953
 10
888.7657406769
 20
-1156.7650708064
 10
892.5801081754
 20
-1153.9163082941
 10
896.6675487274
 20
-1151.196685801
 10
901.0149713735
 20
-1148.6149162929
 10
905.6084504494
 20
-1146.1792700279
 10
910.4332649333
 20
-1143.8975457588
 10
915.4739654535
 20
-1141.7770563814
 10
920.7144058157
 20
-1139.8245924861
 10
926.1377951105
 20
-1138.0464105249
 10
931.7267675193
 20
-1136.4482046787
 10
937.4634066803
 20
-1135.0350927916
 10
943.3293497383
 20
-1133.8116049649
 10
949.3058018331
 20
-1132.7816569463
 10
955.3736177588
 20
-1131.9485516495
 10
961.5133572814
 20
-1131.3149533036
 10
967.7053615304
 20
-1130.8828980971
 10
973.9297819742
 20
-1130.6537652856
 10
980.1666989586
 20
-1130.6282878362
 10
986.396113804
 20
-1130.8065509068
 10
992.598091051
 20
-1131.1879827224
 10
998.7527452897
 20
-1131.7713591366
 10
1004.8403728683
 20
-1132.5548127561
 10
1010.841472967
 20
-1133.5358329405
 10
1016.7368213544
 20
-1134.7112779678
 10
1022.5075283398
 20
-1136.0773841585
 10
1028.1351098961
 20
-1137.6297765202
 10
1033.6015456112
 20
-1139.3634778718
 10
1038.8893234697
 20
-1141.272934695
 10
1043.9814991214
 20
-1143.3520331015
 10
1048.8617637114
 20
-1145.5941136594
 10
1053.5144824054
 20
-1147.9919936335
 10
1057.9247556339
 20
-1150.5379901753
 10
1062.0784556416
 20
-1153.2239475051
 10
1065.9622739024
 20
-1156.0412642847
 10
1069.5637682058
 20
-1158.9809147162
 10
1072.8714028276
 20
-1162.0334838981
 10
1075.8745870549
 20
-1165.1891900654
 10
1078.5637008697
 20
-1168.4379237466
 10
1080.9301226072
 20
-1171.7692819793
 10
1082.9662737373
 20
-1175.1725941618
 10
1084.6656346692
 20
-1178.6369555078
 10
1086.0227631913
 20
-1182.1512681047
 10
1087.0333102755
 20
-1185.7042743688
 10
1087.6940411512
 20
-1189.2845996241
 10
1088.0028353052
 20
-1192.8807642678
 10
1087.9587022865
 20
-1196.4812598042
 10
1087.561789609
 20
-1200.0745412413
 10
1086.8133669465
 20
-1203.6491092074
 10
1085.7158234986
 20
-1207.1935053893
 10
1084.2726864297
 20
-1210.6963809623
 10
1082.4885708195
 20
-1214.1465133185
 10
1080.3691981029
 20
-1217.5328501657
 10
1077.9213512883
 20
-1220.844541462
 10
1075.1528775919
 20
-1224.0709865568
 10
1072.07264234
 20
-1227.2018425546
 10
1068.6905092123
 20
-1230.2270843816
 10
1065.0173158756
 20
-1233.1370188522
 10
1061.064825252
 20
-1235.9223249668
 10
1056.8457050213
 20
-1238.5740839931
 10
1052.3734644833
 20
-1241.0837976659
 10
1047.6624296975
 20
-1243.4434268705
 10
1042.7276935984
 20
-1245.6454143567
 10
1037.5850655349
 20
-1247.6827077876
 10
1032.2510157051
 20
-1249.54877965
 10
1026.7426280707
 20
-1251.2376483549
 10
1021.0775542585
 20
-1252.7439109309
 10
1015.2739358527
 20
-1254.0627392237
 10
1009.3503675161
 20
-1255.1899072672
 10
1003.3258232329
 20
-1256.1218095325
 10
997.2195983574
 20
-1256.8554518035
 10
991.0512595638
 20
-1257.388492235
 10
984.8405579192
 20
-1257.7192185431
 10
978.6073920043
 20
-1257.8465753766
 10
972.3717236203
 20
-1257.7701521524
 10
966.15354091
 20
-1257.4901921791
 10
959.9727529911
 20
-1257.0075987397
 10
953.8491557114
 20
-1256.3239092404
 10
947.802368429
 20
-1255.441319541
 10
941.8517655232
 20
-1254.3626505003
 10
936.016402638
 20
-1253.0913662243
 10
930.3149692664
 20
-1251.6315345282
 10
924.7657400186
 20
-1249.9878292178
 10
919.3864811084
 20
-1248.165518684
 10
914.1944226941
 20
-1246.1704438534
 10
909.2062061956
 20
-1244.0089877744
 10
904.4378046098
 20
-1241.6880782787
 10
899.9044902425
 20
-1239.2151511045
  0
ENDSEC
  0
SECTION
  2
OBJECTS
  0
DICTIONARY
  5
C
330
0
100
AcDbDictionary
281
     1
  3
ACAD_GROUP
350
D
  3
ACAD_LAYOUT
350
1A
  3
ACAD_MLINESTYLE
350
17
  3
ACAD_PLOTSETTINGS
350
19
  3
ACAD_PLOTSTYLENAME
350
E
  3
ACAD_SCALELIST
350
47
  0
DICTIONARY
  5
D
102
{ACAD_REACTORS
330
C
102
}
330
C
100
AcDbDictionary
281
     1
  0
DICTIONARY
  5
1A
102
{ACAD_REACTORS
330
C
102
}
330
C
100
AcDbDictionary
281
     1
  3
Layout1
350
1E
  3
Layout2
350
26
  3
Model
350
22
  0
DICTIONARY
  5
17
102
{ACAD_REACTORS
330
C
102
}
330
C
100
AcDbDictionary
281
     1
  3
Standard
350
18
  0
DICTIONARY
  5
19
102
{ACAD_REACTORS
330
C
102
}
330
C
100
AcDbDictionary
281
     1
  0
ACDBDICTIONARYWDFLT
  5
E
102
{ACAD_REACTORS
330
C
102
}
330
C
100
AcDbDictionary
281
     1
  3
Normal
350
F
100
AcDbDictionaryWithDefault
340
F
  0
DICTIONARY
  5
47
102
{ACAD_REACTORS
330
C
102
}
330
C
100
AcDbDictionary
281
     1
  3
A0
350
48
  3
A1
350
49
  3
A2
350
4A
  3
A3
350
4B
  3
A4
350
4C
  3
A5
350
4D
  3
A6
350
4E
  3
A7
350
4F
  3
A8
350
50
  3
A9
350
51
  3
B0
350
52
  3
B1
350
53
  3
B2
350
54
  3
B3
350
55
  3
B4
350
56
  3
B5
350
57
  3
B6
350
58
  3
B7
350
59
  3
B8
350
5A
  3
B9
350
5B
  3
C0
350
5C
  3
C1
350
5D
  3
C2
350
5E
  3
C3
350
5F
  3
C4
350
60
  3
C5
350
61
  3
C6
350
62
  3
C7
350
63
  3
C8
350
64
  3
C9
350
65
  3
D0
350
66
  3
D1
350
67
  3
D2
350
68
  0
LAYOUT
  5
1E
102
{ACAD_REACTORS
330
1A
102
}
330
1A
100
AcDbPlotSettings
  1

  2
none_device
  4

  6

 40
0.0
 41
0.0
 42
0.0
 43
0.0
 44
0.0
 45
0.0
 46
0.0
 47
0.0
 48
0.0
 49
0.0
140
0.0
141
0.0
142
1.0
143
1.0
 70
   688
 72
     1
 73
     0
 74
     5
  7

 75
    16
147
1.0
148
0.0
149
0.0
100
AcDbLayout
  1
Layout1
 70
     1
 71
     1
 10
0.0
 20
0.0
 11
420.0
 21
297.0
 12
0.0
 22
0.0
 32
0.0
 14
1.0000000000E+20
 24
1.0000000000E+20
 34
1.0000000000E+20
 15
-1.0000000000E+20
 25
-1.0000000000E+20
 35
-1.0000000000E+20
146
0.0
 13
0.0
 23
0.0
 33
0.0
 16
1.0
 26
0.0
 36
0.0
 17
0.0
 27
1.0
 37
0.0
 76
     0
330
1B
  0
LAYOUT
  5
26
102
{ACAD_REACTORS
330
1A
102
}
330
1A
100
AcDbPlotSettings
  1

  2
none_device
  4

  6

 40
0.0
 41
0.0
 42
0.0
 43
0.0
 44
0.0
 45
0.0
 46
0.0
 47
0.0
 48
0.0
 49
0.0
140
0.0
141
0.0
142
1.0
143
1.0
 70
   688
 72
     1
 73
     0
 74
     5
  7

 75
    16
147
1.0
148
0.0
149
0.0
100
AcDbLayout
  1
Layout2
 70
     1
 71
     2
 10
0.0
 20
0.0
 11
0.0
 21
0.0
 12
0.0
 22
0.0
 32
0.0
 14
0.0
 24
0.0
 34
0.0
 15
0.0
 25
0.0
 35
0.0
146
0.0
 13
0.0
 23
0.0
 33
0.0
 16
1.0
 26
0.0
 36
0.0
 17
0.0
 27
1.0
 37
0.0
 76
     0
330
23
  0
LAYOUT
  5
22
102
{ACAD_REACTORS
330
1A
102
}
330
1A
100
AcDbPlotSettings
  1

  2
none_device
  4
Letter_(8.50_x_11.00_Inches)
  6

 40
6.35
 41
6.35
 42
6.35000508
 43
6.35000508
 44
215.9
 45
279.4
 46
0.0
 47
0.0
 48
0.0
 49
0.0
140
0.0
141
0.0
142
1.0
143
1.0
 70
  1712
 72
     1
 73
     0
 74
     0
  7

 75
     0
147
1.0
148
0.0
149
0.0
100
AcDbLayout
  1
Model
 70
     1
 71
     0
 10
0.0
 20
0.0
 11
279.4
 21
215.9
 12
0.0
 22
0.0
 32
0.0
 14
0.0
 24
0.0
 34
0.0
 15
279.4
 25
215.9
 35
0.0
146
0.0
 13
0.0
 23
0.0
 33
0.0
 16
1.0
 26
0.0
 36
0.0
 17
0.0
 27
1.0
 37
0.0
 76
     0
330
1F
331
29
  0
MLINESTYLE
  5
18
102
{ACAD_REACTORS
330
17
102
}
330
17
100
AcDbMlineStyle
  2
Standard
 70
     0
  3

 62
   256
 51
90.0
 52
90.0
 71
     2
 49
0.5
 62
   256
  6
BYLAYER
 49
-0.5
 62
   256
  6
BYLAYER
  0
ACDBPLACEHOLDER
  5
F
102
{ACAD_REACTORS
330
E
102
}
330
E
  0
SCALE
  5
48
102
{ACAD_REACTORS
330
47
102
}
330
47
100
AcDbScale
 70
     0
300
1:1
140
1.0
141
1.0
290
     1
  0
SCALE
  5
49
102
{ACAD_REACTORS
330
47
102
}
330
47
100
AcDbScale
 70
     0
300
1:2
140
1.0
141
2.0
290
     0
  0
SCALE
  5
4A
102
{ACAD_REACTORS
330
47
102
}
330
47
100
AcDbScale
 70
     0
300
1:4
140
1.0
141
4.0
290
     0
  0
SCALE
  5
4B
102
{ACAD_REACTORS
330
47
102
}
330
47
100
AcDbScale
 70
     0
300
1:5
140
1.0
141
5.0
290
     0
  0
SCALE
  5
4C
102
{ACAD_REACTORS
330
47
102
}
330
47
100
AcDbScale
 70
     0
300
1:8
140
1.0
141
8.0
290
     0
  0
SCALE
  5
4D
102
{ACAD_REACTORS
330
47
102
}
330
47
100
AcDbScale
 70
     0
300
1:10
140
1.0
141
10.0
290
     0
  0
SCALE
  5
4E
102
{ACAD_REACTORS
330
47
102
}
330
47
100
AcDbScale
 70
     0
300
1:16
140
1.0
141
16.0
290
     0
  0
SCALE
  5
4F
102
{ACAD_REACTORS
330
47
102
}
330
47
100
AcDbScale
 70
     0
300
1:20
140
1.0
141
20.0
290
     0
  0
SCALE
  5
50
102
{ACAD_REACTORS
330
47
102
}
330
47
100
AcDbScale
 70
     0
300
1:30
140
1.0
141
30.0
290
     0
  0
SCALE
  5
51
102
{ACAD_REACTORS
330
47
102
}
330
47
100
AcDbScale
 70
     0
300
1:40
140
1.0
141
40.0
290
     0
  0
SCALE
  5
52
102
{ACAD_REACTORS
330
47
102
}
330
47
100
AcDbScale
 70
     0
300
1:50
140
1.0
141
50.0
290
     0
  0
SCALE
  5
53
102
{ACAD_REACTORS
330
47
102
}
330
47
100
AcDbScale
 70
     0
300
1:100
140
1.0
141
100.0
290
     0
  0
SCALE
  5
54
102
{ACAD_REACTORS
330
47
102
}
330
47
100
AcDbScale
 70
     0
300
2:1
140
2.0
141
1.0
290
     0
  0
SCALE
  5
55
102
{ACAD_REACTORS
330
47
102
}
330
47
100
AcDbScale
 70
     0
300
4:1
140
4.0
141
1.0
290
     0
  0
SCALE
  5
56
102
{ACAD_REACTORS
330
47
102
}
330
47
100
AcDbScale
 70
     0
300
8:1
140
8.0
141
1.0
290
     0
  0
SCALE
  5
57
102
{ACAD_REACTORS
330
47
102
}
330
47
100
AcDbScale
 70
     0
300
10:1
140
10.0
141
1.0
290
     0
  0
SCALE
  5
58
102
{ACAD_REACTORS
330
47
102
}
330
47
100
AcDbScale
 70
     0
300
100:1
140
100.0
141
1.0
290
     0
  0
SCALE
  5
59
102
{ACAD_REACTORS
330
47
102
}
330
47
100
AcDbScale
 70
     0
300
1/128" = 1'-0"
140
0.0078125
141
12.0
290
     0
  0
SCALE
  5
5A
102
{ACAD_REACTORS
330
47
102
}
330
47
100
AcDbScale
 70
     0
300
1/64" = 1'-0"
140
0.015625
141
12.0
290
     0
  0
SCALE
  5
5B
102
{ACAD_REACTORS
330
47
102
}
330
47
100
AcDbScale
 70
     0
300
1/32" = 1'-0"
140
0.03125
141
12.0
290
     0
  0
SCALE
  5
5C
102
{ACAD_REACTORS
330
47
102
}
330
47
100
AcDbScale
 70
     0
300
1/16" = 1'-0"
140
0.0625
141
12.0
290
     0
  0
SCALE
  5
5D
102
{ACAD_REACTORS
330
47
102
}
330
47
100
AcDbScale
 70
     0
300
3/32" = 1'-0"
140
0.09375
141
12.0
290
     0
  0
SCALE
  5
5E
102
{ACAD_REACTORS
330
47
102
}
330
47
100
AcDbScale
 70
     0
300
1/8" = 1'-0"
140
0.125
141
12.0
290
     0
  0
SCALE
  5
5F
102
{ACAD_REACTORS
330
47
102
}
330
47
100
AcDbScale
 70
     0
300
3/16" = 1'-0"
140
0.1875
141
12.0
290
     0
  0
SCALE
  5
60
102
{ACAD_REACTORS
330
47
102
}
330
47
100
AcDbScale
 70
     0
300
1/4" = 1'-0"
140
0.25
141
12.0
290
     0
  0
SCALE
  5
61
102
{ACAD_REACTORS
330
47
102
}
330
47
100
AcDbScale
 70
     0
300
3/8" = 1'-0"
140
0.375
141
12.0
290
     0
  0
SCALE
  5
62
102
{ACAD_REACTORS
330
47
102
}
330
47
100
AcDbScale
 70
     0
300
1/2" = 1'-0"
140
0.5
141
12.0
290
     0
  0
SCALE
  5
63
102
{ACAD_REACTORS
330
47
102
}
330
47
100
AcDbScale
 70
     0
300
3/4" = 1'-0"
140
0.75
141
12.0
290
     0
  0
SCALE
  5
64
102
{ACAD_REACTORS
330
47
102
}
330
47
100
AcDbScale
 70
     0
300
1" = 1'-0"
140
1.0
141
12.0
290
     0
  0
SCALE
  5
65
102
{ACAD_REACTORS
330
47
102
}
330
47
100
AcDbScale
 70
     0
300
1-1/2" = 1'-0"
140
1.5
141
12.0
290
     0
  0
SCALE
  5
66
102
{ACAD_REACTORS
330
47
102
}
330
47
100
AcDbScale
 70
     0
300
3" = 1'-0"
140
3.0
141
12.0
290
     0
  0
SCALE
  5
67
102
{ACAD_REACTORS
330
47
102
}
330
47
100
AcDbScale
 70
     0
300
6" = 1'-0"
140
6.0
141
12.0
290
     0
  0
SCALE
  5
68
102
{ACAD_REACTORS
330
47
102
}
330
47
100
AcDbScale
 70
     0
300
1'-0" = 1'-0"
140
12.0
141
12.0
290
     0
  0
ENDSEC
  0
EOF
